Oops, an error
Loading. Please wait.

You Know My Name tab

version 3
version 3

Whole song

Interactive

4,756 views 6 this week
no commentswrite comment
1 2 3 4 5
2 more votes to show rating
add to favorites
×
Save as Personal and add changes to this tab that will be seen only by you. Learn more ›
×
You can save this tab as Personal to edit and correct it or add notes. All changes will be seen only by you. Learn more »
launch autoscroll
font size
0
reset
how to read this tab
guitar tuner
edit
Autoscroll
slow
fast
+/-
esc
set tempo
stop
Author
Difficulty
Chris Cornell -
You Know My Name -
Also the theme song to Bond Movie Casino Royale

First the Opening Riff-

E|----------------------|-----------------------|
B|----------------------|---------------------7-|
G|---6---6b7----6---6b7-|---6---6b7----6--------|
D|-9---9------9---9-----|-9---9------9---9------|
A|----------------------|-----------------------|
E|----------------------|-----------------------|

Then The horns come in

Meanwhile, below the opening riff are a few power chords-

E|---------------|-REPEAT
B|---------------|-REPEAT
G|---------------|-REPEAT
D|-9-9-5-5-2-2---|-REPEAT
A|-9-9-5-5-2-2---|-REPEAT
E|-7-7-3-3-0-0---|-REPEAT

Then we get this nice little run that leads into the vocals-

E|-----------|
B|-----------|
G|-6b7-------|
D|-----9-7---|
A|---------9-|
E|-----------|

Now For the rest of the Song-
I Will have the chords/bass notes below the song part
and the occasional input from the lead guitar above it

E|----2----------------------3------------------------------2-|
B|---3----------------------3------------------------------3--|
G|--4----------------------3------------------------------4---|
D|-4----------------------5------------------------------4----|
A|------------------------------------------------------------|
E|------------------------------------------------------------|
VERSE                  Last section of tab below 2ndx only Look under Here
E|-------------Rpt.----------------Rpt.-------------------------------|---|
B|-------------Rpt.----------------Rpt.-------------------------------|---|
G|-------------Rpt.----------------Rpt.-------------------------------|---|
D|-4-4---4-4-4-Rpt.----------------Rpt.----7-7---7-7-7--7-4-4---4-4-4-|---|
A|-2-2---2-2-2-Rpt.-----5-5--5-5-5-Rpt.----5-5---5-5-5--5-2-2---2-2-2-|-4-|
E|-------------Rpt.-----3-3--3-3-3-Rpt.-------------------------------|-2-|

===========================================================================
PRELUDE TO CHORUS
E|-----------------Rpt.--2xonly->-----------|
B|-----------------Rpt.--2xonly->-----------|
G|-----------------Rpt.--2xonly->-----------|
D|-----------------Rpt.--2xonly->-----------|
A|-5----4----9-7-5-Rpt.--2xonly->hold5----4-|
E|-3----2----7-5-3-Rpt.--2xonly->hold3----2-|

===========================================================================
CHORUS
E|-----|-----|-----|---|-----|-----|---|---|-----|-----|---|---|---|---|---|---|---|------|
B|-----|-----|-----|---|-----|-----|---|---|-----|-----|---|---|---|---|---|---|---|------|
G|-----|-----|-----|---|-----|-----|---|---|-----|-----|---|---|---|---|---|---|---|------|
D|-----|-----|-----|---|-----|-----|---|---|-----|-----|---|---|---|---|---|---|---|------|
A|-9-9-|-5-5-|-2-2-|-2-|-9-9-|-5-5-|-2-|-2-|-9-9-|-5-5-|-2-|-2-|-5-|-5-|-2-|-2-|-2-|-2-|--|
E|-7-7-|-3-3-|-0-0-|-0-|-7-7-|-3-3-|-0-|-0-|-7-7-|-3-3-|-0-|-0-|-3-|-3-|-0-|-0-|-0-|-0-|--|

After The line that goes "You Know My Name", there is another set of power chords that go like this--

E|--------------|
B|--------------|
G|--------------|
D|-9-9-5-5-2-2--|
A|-9-9-5-5-2-2--|
E|-7-7-3-3-0-0--|

And thats just about it! for the rest of the song, keep playing the chorus chord 
I hope this tab helped you.

            
            
Suggest correction
Creating personal tab
Creating personal tab
You can edit any tab online and save it as your Personal.

You can edit, replace or remove any tab part or add personal notes – all changes will be seen only by you.

Personal tabs can be accessed anytime from any device, even offline.
Learn more »
Give kudos to tab author, rate the tab!
1 2 3 4 5
comments
print report bad tab
guest
You may want to rate the tab now too:
select rating
Wanna post a correction for this tab? Suggest correction