Oops, an error
Loading. Please wait.

Breakdown Tab

version 1
version 1

Intro

Whole song

9,414 views 9 this week
2 commentsread comments
1 2 3 4 5
excellent!
x 3
add to favorites
launch autoscroll
font size
0
reset
how to read this tab
guitar tuner
Tab Pro tools
  • play this tab
  • loop segment
  • change instrument
  • show fretboard
  • metronome
Autoscroll
slow
fast
+/-
esc
set tempo
stop
Difficulty
intermediate
Guitar Tuning: (low to high) C#, G#, C#, F#, A#, D#

Accent the high A# (2nd string, open) as you finger pick.  The roll should have a triplet feel to it.

|-----------------------------------------------------------------------------------------------------------|
|-----0---------0---------0---------0---------0--------------0---------0---------0---------0---------0------|
|---------2---------2---------2---------2---------2--------------2---------2---------2---------2---------2--|
|-------------4---------4---------4---------4-------------------------4---------4---------4---------4-------|
|-----------------------------------------------------------------------------------------------------------|
|-4-------------------------------------------------------2-------------------------------------------------|


|------------------------------------------------------------|
|------0---------0-----------------0-------------------------|
|----------2---------2-------------------2---------2h4-------|
|--------------4---------4-----0-------------2h4-------------|
|------------------------------------------------------------|
|-0-------------------------------------------------------4--|

The song itself is in Fm7 and follows the chromatic chord progression as outlined above.

Tab By: Adam Warren (xrevadamx@yahoo.com)
comments
We did not receive enough feedback on this tab! Please rate:
print report bad tab
1 2 3 4 5
2 comments total.
0 reply
tryhonesty wrote on April 26 2008, 10:05 am

where's the chorus and prechorus?this is an intro not a whole song.

0 reply
tryhonesty wrote on April 26 2008, 10:07 am

oh, sorry for the useless comment. i didn't notice it did asy intro on it:$:P srry everyone

I want to post or [tab]
guest
You may want to rate the tab now too:
select rating
Please do not post tabs as comments. Select "correction" instead!