Oops, an error
Loading. Please wait.

Breakdown Tab

version 1
version 1

Whole song

10,728 views 15 this week
no commentswrite comment
1 2 3 4 5
excellent!
x 3
add to favorites
launch autoscroll
font size
0
reset
how to read this tab
guitar tuner
Tab Pro tools
  • play this tab
  • loop segment
  • change instrument
  • show fretboard
  • metronome
×
Best way to learn
"Breakdown"
Autoscroll
slow
fast
+/-
esc
set tempo
stop
Contributor
Difficulty
Tuning
novice
C# G# C# F# A# D#
dince nobody could tab out this song I thought I would do it myself, and if you haven't
this song go out and do it!:)

billy_talent_dg
email: msnboardofdirectors@hotmail.com

tuned in drops C#

intro
|---------------------------------------------------------------------------------|
|-----0----------0----------0----------0---------0--------------0----------0------|
|---------2----------2----------2----------2---------2--------------2----------2--|
|------------4----------4----------4----------4-------------------------4---------|
|---------------------------------------------------------------------------------|
|-4------------4----------4-----------4----------------------2------------2-------|

----------------------------------|
----0----------0----------0-------|
--------2----------2----------2---|
-4----------4----------4----------|
----------------------------------|
---2----------2-------------------|

|-----------------------------------------------------------|
|------0----------0-----------------0-----------------------|
|----------2----------2-------------------2---------2h4-----|
|--------------4----------4-----0-------------2h4-----------|
|-----------------------------------------------------------|
|-0--------------0---------------------------------------4--|


Verse(acoustic)

|-------------| just strum these 3 chords and let the open chords ring.
|-------------| listen to song for exact timing and  strum patterns
|-------------|
|-4--2--0--2--|
|-4--2--0--2--|
|-4--2--0--2--|

prechorus(electric)

|-9---5---9---5-12-9---5---9b---4----2-0-2-0-2-0-2-0--|
|-----------------------------------------------------|
|-----------------------------------------------------|
|-----------------------------------------------------|
|-----------------------------------------------------|
|-----------------------------------------------------|


1st chorus (electric)

|-2-0-2-0-4---5-0-5-0-4---2-0-2-0-4---5-0-5-0-4---5-0-5-0-4---5-0-5-0-7---|
|-------------------------------------------------------------------------|
|-------------------------------------------------------------------------|
|-------------------------------------------------------------------------|
|-------------------------------------------------------------------------|
|-------------------------------------------------------------------------|

interlude (electric)

|---4---9-----|
|-------------|
|-------------|
|-------------|
|-------------|
|-------------|

same verse as before

2nd Prechorus

|-9---5---9---5-12-9---5---9b------------------|
|----------------------------------------------|
|----------------------------------------------|
|----------------------------0-0-0-0--2-2-2-2--|
|----------------------------0-0-0-0--2-2-2-2--|
|----------------------------0-0-0-0--2-2-2-2--|
                             . . . .  . . . .

2nd Chorus

|----------------------------------------------------------------------------|
|----------------------------------------------------------------------------|
|---------------------------------------------------------2------------------|
|-4-4-4-4--------2--0----2222-4444--------2--0----222-444-2---2--0----2222-4-|
|-4-4-4-4-4-5-4~-2--0----2222-4444-4-5-4~-2--0----222-444-0---2--0----2222-4-|
|-4-4-4-4--------2--0----2222-4444--------2--0----222-444-----2--0----2222-4-|

bridge(not so sure on this part so it is off a bit)

part1
|-----------------------|
|-----------------------|
|-----------------------|
|-4444-xx-4444-xx-2-44--| x4
|-4444-xx-4444-xx-------|
|-4444-xx-4444-xx-------|

part2
|------------------------|
|------------------------|
|-2---------4444---------|then the guitarist does a few notes that I can't
|-2---2---2-2222-0-0-0-0-|tab out, sorry
|-0---2---2------0-0-0-0-|
|-----2---2------0-0-0-0-|

part3(acoustic)
|----------| strum this 2 times
|----------|
|----------|
|-4--2--0--|
|-4--2--0--|
|-4--2--0--|

riff
|------------------------------| x4  but on the 2nd time have a 1
|------------------------------|     second pause between the end
|------------------------------|     of the riff and start of new riff
|-4-4-4-4--------2--0----2222--|
|-4-4-4-4-4-5-4~-2--0----2222--|
|-4-4-4-4--------2--0----2222--|


do the chorus x1(or asomthing like the chorus sorry can't help you there), then end like this

|--------------------|
|--------------------|
|--------------------|
|-0000-2222-4444-----| hold the last chord until it fades out
|-0000-2222-4444-----|
|-0000-2222-4444-----|


hope you enjoy:)

and if anyone has any idea's for the next tab or complaints, leave a comment on my
thanks:)
comments
We did not receive enough feedback on this tab! Please rate:
print report bad tab
1 2 3 4 5
I want to post or [tab]
guest
You may want to rate the tab now too:
select rating
Please do not post tabs as comments. Select "correction" instead!