Oops, an error
Loading. Please wait.

Call Your Name Tab

36,075 views 24 this week
3 commentsread comments
1 2 3 4 5
accurate
x 7
add to favorites
launch autoscroll
font size
0
reset
how to read this tab
guitar tuner
Autoscroll
slow
fast
+/-
esc
set tempo
stop
Help us to improve Ultimate-Guitar.com Take our survey!
×
                  Daughtry-Call your Name

By Sanjeev George and Thomas George
SanjeevGeorge123@yahoo.co.in

Submitted to and for www.ultimate-guitar.com only, the site for all your tab needs
PLEASE RATE AND COMMENT

TUNING-HALF STEP DOWN

Chords on guitar 1,leads and arps on guitar 2

INTRO    C   Am   Em   G  X2



    C     Am      Em     G      F      Em/C
e|----------------0------3------1-------0--------------------|
B|--1------1------0------3------1-------1--------------------|
G|--0------2------0------0------2-------0--------------------|
D|--2------2------2------0------3-------2--------------------|
A|--3------0------2------2------3-------2--------------------|
E|----------------0------3------1-------0--------------------|


       A5     G5    F5     C5     Em/C5    G#5     Bb5
e|----------------------------------------------------------|
B|----------------------------------------------------------|
G|--------------------------5-------------------------------|
D|-----7------5------5------5-----5---------6-------8-------|
A|-----7------5------5------3-----2---------6-------8-------|
E|-----5------3------1----------------------4-------6-------|

Verse
 C                 Am                                     
You never said, you never said, you never said 
  Em                     G
that it would be this hard
  C                  Am                   
Love is meant to be forever, now or 
          Em           G
never seems to discard

  C                             Am
There's got to be a better way for me to say 
        Em                G
what's on my heart without leaving scars

      F                   G
So can you hear me when I call your name?

Chorus

   Am       G            F                     C         Em/C
When you fall apart, am I the reason for your endless sorrow?
  Am       G          F    G
There's so much to be said
   Am         G         F                     C        Em/C
With a broken heart, your walls can only go down but so low
     F                     G
But can you hear me when I call your name?
   G
When I call your name


Guitar 2 arps during chorus something like

e|-----------------------------------------------|
B|--1-------0------------------------------------|
G|----2-------0-----0-----2-----0----------------|
D|------2-------0-----0-----3-0---2---2----------|
A|----------------------------------3---3--------|
E|-----------------------------------------------|

VERSE 2 chords are same as verse 1

Complicated situations are the makings of all that's wrong
And I've been standing in the river of deliverance way too long
There's got to be a better way for me to say what's on my heart without leaving scars
So can you hear me when I call your name?
So can you hear me when I call your name?

Chorus
When you fall apart, am I the reason for your endless sorrow?
There's so much to be said
With a broken heart, your walls can only go down but so low
But can you hear me when I call your name?

   C                   Am              Em                  G
You never said, you never said, you never said, you never said
(When I call your name)


solo

e|--------------------------------------------------------------------------|
B|------------------------------------------------13b15-13b16v -------------|
G|--12b14v---14p12----12b14v---14p12----13b15v------------------------------
D|-----------------14----------------14-12b14v------------------------------|
A|--------------------------------------------------------------------------|
E|--------------------------------------------------------------------------|

e|--------------------------------------------------------------------------|
B|--10h12p10---------------12-13-12p10-10-12-10h12p10----10-----------------|
G|-----------12-12b14v--------------------------------12----12b14-----------|
D|--------------------------------------------------------------------------|
A|--------------------------------------------------------------------------|
E|--------------------------------------------------------------------------|


e|--------------------------------------------------------------------------|
B|-10-8-----8---------------------------------------------------------------|
G|------9-7---9-7----9-7------7---------------------------------------------|
D|----------------10-----10-7---10-7----10-7------10-7------10-7------7v----|
A|-----------------------------------10------10-7------10-7------10-7-------|
E|--------------------------------------------------------------------------|

Yeah!!!
Chorus
   A5       G5            F5                     C5         Em/C
When you fall apart, am I the reason for your endless sorrow?
  A5       G5         F5    G5
There's so much to be said
   A5         G5         F5                  C5        Em/C
With a broken heart, your walls can only go down but so low
     F5               G5
But can you hear me when I call your name?

Guitar 2
e|-----------------------------|
B|-----------------------------|
G|-----------------------------|
D|------------5----------------|
A|--------5-7---7-5------------|
E|--5-7-8----------------------|

   A5       G5            F5                     C5         Em/C
When you fall apart, am I the reason for your endless sorrow?
  A5       G5         F5    G5
There's so much to be said
   A5         G5         F5                  C5        Em/C
With a broken heart, your walls can only go down but so low
     F5               G#5                Bb5    C5
But can you hear me when I call your name?

Guitar 2 during the last chorus

e|-----------------------------------------------|
B|-----------------------------------------------|
G|--12b14r12----12h14p12----14-12----------------|
D|-----------14----------14-------14-12----------|
A|-----------------------------------------------|
E|-----------------------------------------------|

e|-----------------------------------------------------------------------|
B|-------------------------13v-15v-17vvvvvv vibrate with whammy----------|
G|-5v-7v-8v-10v-12h13v—15v-------------------then pick slide-------------|
D|-----------------------------------------------------------------------|
A|-----------------------------------------------------------------------|
E|-----------------------------------------------------------------------|


Suggest correction
comments
print report bad tab
3 comments total.
+1 reply
denisregnaud 10 wrote on September 24 2009, 02:12 pm

thanks for the tab;)but the chorus sounds wrong with the "G chords" according to me the "Em chords" fit more

0 reply
Vek51 10 wrote on November 25 2009, 09:48 am

Amazing tab:) but i agree with denisregnaud that chorus should be "Em" not "G". thanks:D

0 reply
devilmind 10 wrote on December 30 2009, 07:14 am

ya i even agree Em sounds exact dea den D............ nyways thnx 4 da awsum tab :D:D:D:D

guest
You may want to rate the tab now too:
select rating
Wanna post a correction for this tab? Suggest correction