Oops, an error
Loading. Please wait.

Crashed Tab

version 1
version 1

Acoustic

Whole song

11,997 views 6 this week
3 commentsread comments
1 2 3 4 5
x 3
add to favorites
launch autoscroll
font size
0
reset
how to read this tab
guitar tuner
Autoscroll
slow
fast
+/-
esc
set tempo
stop
Help us to improve Ultimate-Guitar.com Take our survey!
×
Author
Difficulty
Tuning
novice
C# G# C# F# A# D#
-------------------------------------------------------------------------------
                             CRASHED (acoustic) - Daughtry
-------------------------------------------------------------------------------
Tabbed by: fretsonfire
Email:

Tuning: Drop C# 

Chords repeated in intro and throughout verses 1 and 2, listen for rhythm.

d#|----0-----0-----0---------------------------------------------------|
A#|----x-----x-----x---------------------------------------------------|
F#|----2-----2-----2---------------------------------------------------|
C#|----0-----0-----0---------------------------------------------------|
G#|----0-----0-----0---------------------------------------------------|
C#|----0-----3-----5---------------------------------------------------|

CHORUS

d#|----0-----0-----0-----0---------0-----0-----0-----0-----0-----------------|
A#|----x-----x-----x-----x---------x-----x-----x-----x-----x-----------------|
F#|----2-----2-----2-----2---------2-----2-----2-----2-----2-----------------|
C#|----0-----3-----5-----5---------0-----3-----5-----5-----3-----------------|
G#|----0-----3-----3-----5---------0-----3-----3-----5-----3-----------------|
C#|----0-----3-----x-----5---------0-----3-----x-----5-----3-----------------|

BRIDGE

              Your face . . .                     . . . burn in to me
d#|-----0-----------------------------------0-------------------------|
A#|-----x-----------------------------------x-------------------------|
F#|-----2-----------------------------------2-------------------------|
C#|-----3-----------------------------------3-------------------------|
G#|-----3-----------------------------------3-------------------------|
C#|-----3-----------------------------------3-------------------------|

         . . . saved me . . .    . . . what i need       oh    just what i need    
d#|-----0-----------------------0---------------------0----------------|
A#|-----x-----------------------x---------------------x----------------|
F#|-----2-----------------------2---------------------x----------------|
C#|-----3-----------------------5---------------------7----------------|
G#|-----3-----------------------5---------------------7----------------|
C#|-----3-----------------------5---------------------7----------------|

Back to CHORUS and you're done.  Very simple, great song.


| /  slide up
| \  slide down
| h  hammer-on
| p  pull-off
| ~  vibrato
| +  harmonic
| x  Mute note
===============================================================================
Suggest correction
Give kudos to tab author, rate the tab!
1 2 3 4 5
comments
print report bad tab
3 comments total.
0 reply
Twh2003 91 Feb 04, 2007 04:44 PM

your tab, for the most part, is correct, but theres a much easier way to play it (and i think this is how the band plays it, too):

1. tune the guitar to c#-g#-c#-g#-Bb-c#
2. play the 2nd fret as open in every case, and dont mute the 2nd string

there you go,
tony

0 reply
fretsonfire 31 Feb 04, 2007 05:06 PM

good call tony, except i realized later this song is actually tuned to open C#, which is:

c#-g#-c#-g#-c#-c#

the chords are basically the same finger positions, just don't mute the strings like tony said.

0 reply
hungryhamster 57 Mar 31, 2007 01:20 PM

I think this sounds pretty close for the intro but its not the right way (its meant to be played cgcgcc)

c#|-0-----0--0-/-0---------------------
A#|-3-----x--x-/-x---------------------
F#|-2-----2--2-/-4---------------------
C#|-0-----3--3-/-5---------------------
G#|-0-----3--3-/-5---------------------
C#|-0-----3--3-/-5---------------------

guest
You may want to rate the tab now too:
select rating
Wanna post a correction for this tab? Suggest correction