Oops, an error
Loading. Please wait.

Crashed Bass Tab

3,148 views 3 this week
2 commentsread comments
1 2 3 4 5
worth learning
x 3
add to favorites
launch autoscroll
font size
0
reset
guitar tuner
Autoscroll
slow
fast
+/-
esc
set tempo
stop
Help us to improve Ultimate-Guitar.com Take our survey!
×
Author
Difficulty
Tuning
intermediate
D A D G B E
Bassist-John Paul

Just a heads-up: Normally a 5-string would be used for this song, but I tabbed it using a 4.

Verse (Don't play Intro)

G|--------|--------| (x4)
D|--------|--------|
A|--------|--------|
D|6-6-9---|2-2-4---|

Chorus

G|------------------|------------------| (x2)
D|------------------|------------------|
A|------------------|22222222----------|(Note: Played with variations)
D|66666666-22222222-|---------44444444-|

Verse

G|--------|--------| (x4)
D|--------|--------|
A|--------|--------|
D|6-6-9---|2-2-4---|

Chorus

G|------------------|------------------| (x2)
D|------------------|------------------|
A|------------------|22222222----------|     (Again, variations)
D|66666666-22222222-|---------44444444-|

Bridge

G|-----------------------| (x2) 
D|-----------------------|
A|2-2--2-2--22-4-4-4-4-44|
D|-----------------------|

G|--------|
D|--------|
A|--------|
D|678-9---|

Chorus

G|-----------------|---------43------43-------------|
D|-----------------|-------------43-------43----2-4-|
A|-----------------|22222222----4---4----4---4-4---4|
D|R-R-R-R-22222222-|--------------------------------|

G|------------------|------------------| (x2)
D|------------------|------------------|
A|------------------|22222222----------|
D|66666666-22222222-|---------44444444-|

G|------------------|--------------| 
D|------------------|--------------|
A|------------------|22222222------|
D|66666666-22222222-|---------4~---|

Let Ring till the end of song.

I may not have the number of notes right, but the right notes
are there.  I included one variation, but the rest are pretty
self-expanatory and you should be able to figure them out 
yourself.  Comments are welcome, and enjoy.



Suggest correction
Give kudos to tab author, rate the tab!
1 2 3 4 5
comments
print report bad tab
2 comments total.
0 reply
aidypie 93 wrote on March 10 2007, 08:29 pm

hey man, great tab. the only thing i didnt like was the verse, i found it kinda hard to pick up. iuno prolly just me, great tab tho. do more daughtry songs cuz hes great. n btw, does ur name have to be IHATECHILDREN? remember bud, u were one at one time too. take care

0 reply
BASSISTSRUL3 10 wrote on October 19 2007, 03:38 am

Theres no need for this tab to be in drop D as the lowest not played is an E...

G|--------|--------| (x4)
D|--------|--------|
A|--------|--------|
E|4-4-7---|0-0-2---|

Putting this tab in drop D only causes unmusicial people, who can't realise that it doesn't need to be in drop D, alot more trouble. We can't have that now can we...

guest
You may want to rate the tab now too:
select rating
Wanna post a correction for this tab? Suggest correction