Oops, an error
Loading. Please wait.

Crawling Back To You Tab

3,858 views 6 this week
4 commentsread comments
1 2 3 4 5
accurate
x 5
add to favorites
launch autoscroll
font size
0
reset
how to read this tab
guitar tuner
Tab Pro tools
  • play this tab
  • loop segment
  • change instrument
  • show fretboard
  • metronome
×
Best way to learn
"Crawling Back To You"
Autoscroll
slow
fast
+/-
esc
set tempo
stop
Contributor
This is a simple tab to play on electric. I've only put in the basics.
I tried to line up the chords with the lyrics, making it easier to follow.
It is a little bit off though. You'll have to listen to the song.
Strumming patterns are up to you. Play it how YOU hear it :)

The 'subtle chord change' right at the end is my own touch.
I reckon it sounds better. Let your own ears decide.
Thanks for looking :)



[FIRST VERSE]
|--------------------------------------------|
|--------------------------------------------|
|-5----------------------------------3-------|
|-5----------------------------------3----6--|
|-3----------------------------------1----6--|
|-----------------------------------------4--|
Lessons learned, bridges burned to the ground,

|----------------------------------------|
|----------------------------------------|
|-----------------------------3----------|
|---------5-------------------3----------|
|---------5-------------------1----------|
|---------3------------------------------|
And it's too late now to put out the fire,

|-----------------------------------------------|
|-----------------------------------------------|
|-5-------------------------------------3-------|
|-5-------------------------------------3----6--|
|-3-------------------------------------1----6--|
|--------------------------------------------4--|
Tables turned, and I'm the one who's burning now,

|---------------------|
|---------------------|
|---------------------|
|--------5------------|
|--------5------------|
|--------3------------|
Well I'm doing alright,
'Til I close my eyes

|-----------------------|
|-----------------------|
|---3-------------------|
|---3-------------------|
|---1-------------------|
|-----------------------|
And then I see your face,

|-------------------|
|-------------------|
|---------------5---|
|---------------5---|
|---------------3---|
|-------------------|
And it's no surprise.

******************************************************

[CHORUS:]
|--------------------------------------|
|--------------------------------------|
|-------------------8------------------|
|-6-----------------8------------------|
|-6-----------------6------------------|
|-4------------------------------------|
Just like that I'm crawling back to you,

|------------------------------|
|------------------------------|
|-3------------5---------------|
|-3------------5---------------|
|-1------------3---------------|
|------------------------------|
Just like you said I would yeah,

|----------------------------------------------------|
|----------------------------------------------------|
|---------------------------8-----------------3----5-|
|-6-------------------------8-----------------3----5-|
|-6-------------------------6-----------------1----3-|
|-4--------------------------------------------------|
I swallow my pride, now I'm crawling back to you,

|----------------------------------------|
|----------------------------------------|
|----------------------------8-----------|
|----6-----------------------8-----------|
|----6-----------------------6-----------|
|----4-----------------------------------|
I'm out of my head, can't wait any longer,

|-----------------------------------------|
|-----------------------------------------|
|-5------------------3--------------------|
|-5------------------3--------------------|
|-3------------------1--------------------|
|-----------------------------------------|
Down on my knees, I thought I was stronger,

|-----------------------------------|
|-----------------------------------|
|-----------------------------------|
|-3-------------5-----------------6-|
|-3-------------5-----------------6-|
|-1-------------3-----------------4-|
Just like that, like you said I'd do,

|--------------------------------------|
|--------------------------------------|
|----3----------------8----5----3------|
|----3----------------8----5----3----6-|
|----1----------------6----3----1----6-|
|------------------------------------4-|
I'm crawling back to you.

******************************************************
******************************************************

[SECOND VERSE] - Played the same as the first.

******************************************************
******************************************************

[SECOND CHORUS] - you guessed it! except the last bar...
|--------------------------------------|
|--------------------------------------|
|----3----------------8----------------|
|----3----------------8---maintain this chord into bridge
|----1----------------6----------------|
|--------------------------------------|
I'm crawling back to yoooooooooooooooou.


******************************************************
******************************************************

[BRIDGE]
|---------------------------------------------------------------|
|---------------------------------------------------------------|
|-------------5---------------------3---------------------------|
|-------------5---------------------3------------------6--------|
|-------------3---------------------1------------------6--------|
|------------------------------------------------------4--------|
If you could find a way, to forgive everything, I know you would.

|-------------------------------------------------------------|
|-------------------------------------------------------------|
|-----------5--------------------------3------2-----------8---|
|-----------5--------------------------3------2-----------8---|
|-----------3--------------------------1------0-----------6---|
|-------------------------------------------------------------|
And I would take it all back, give if only I knew that I could.

|--------------------------------------------|
|--------------------------------------------|
|-5----------------------------------3-------|
|-5----------------------------------3----6--|
|-3----------------------------------1----6--|
|-----------------------------------------4--|
Lessons learned, bridges burned to the ground.

|----------------------------------------|
|----------------------------------------|
|-----------------------------3----------|
|---------5-------------------3----------|
|---------5-------------------1----------|
|---------3------------------------------|
And it's too late now, to put out the fire.

******************************************************
******************************************************

[FINAL CHORUS] - 
Played like the others except when it hits the outro

|--------------------------------------|
|--------------------------------------|
|----3----------------8----5----3----2-|-subtle
|----3----------------8----5----3----2-|-chord   
|----1----------------6----3----1----0-|-change
|--------------------------------------|
I'm crawling back to yoooooooooooooouuu.

|-----------------------------------------|
|-----------------------------------------|
|------------------------8----5----3----2-|
|------------------------8----5----3----2-|
|------------------------6----3----1----0-|
|-----------------------------------------|
Yeah im crawling back to yoouuuu yeahhhhh

OOHHHHH!!

(x2)
|------------------------------------------------|       
|------------------------------------------------|        
|--8-------------5--------------3--------------4-|-another
|--8-------------5--------------3--------------4-|-subtle 
|--6-------------3--------------1--------------2-|-change 
|------------------------------------------------|        
                Crawling back to yoooooooooooouuu 
|-----|
|-----|
|--5--|
|--5--|
|--3--|
|-----|
comments
print report bad tab
4 comments total. Showing first comments.
0 reply
RedneckJedynak wrote on April 25 2013, 12:40 pm

What tuning is this in??

0 reply
JozeyBeenz wrote on May 8 2015, 12:14 pm

Standard Tuning. E A D G B E

0 reply
cyber06 wrote on February 11 2015, 06:34 pm

half-step down I believe.

I want to post or [tab]
guest
You may want to rate the tab now too:
select rating
Please do not post tabs as comments. Select "correction" instead!