Oops, an error
Loading. Please wait.

Drown In You Tab

version 3
version 3

Whole song

Interactive

1,200 views 1 this week
no commentswrite comment
1 2 3 4 5
3 more votes to show rating
add to favorites
launch autoscroll
font size
0
reset
how to read this tab
guitar tuner
Autoscroll
slow
fast
+/-
esc
set tempo
stop
Help us to improve Ultimate-Guitar.com Take our survey!
×
Author
Difficulty
Tuning
intermediate
D A D G B E
-------------------------------------------------------------------------------
                             Drown in You - Daughtry
-------------------------------------------------------------------------------
Tabbed by: Diesel
E-mail: daughtryfan497@gmail.com
Featured in Batman Arkham City Soundtrack

Tuning: Drop D                       Intro
                 Repeat x2                      Repeat x3
e|-------------0---0---------------0---0--------------------------------------------
B|------------- 6---6---------------6---6--------5------3---------------------------
G|---------7-----7---7---------7-----7---7------5------3-3---------------------------
D|-------0-------------------0-------------------------------------------------------
A|-------------------------------------------3-------1-------------------------------
D|-----------------------------------------------------------------------------------

e|---------------3-----------------------------------------------------------------|
B|--------------3-3------1---------------------------------------------------------|
G|-------------0---0-----2---------------------------------------------------------|
D|------------0-----0----x---------------------------------------------------------|
A|-----------5-----------3---------------------------------------------------------|
D|----------5------------3----2~---------------------------------------------------|

                         Verse
e|--------------------------------------------------------------------------------|
B|--------------------------------------------------------------------------------|
G|--------------------------------------------------------------------------------|
D|------0----------0-------0------------------------------------------------------|
A|------0----------0-------0------------------------------------------------------|
D|------0----------0-------0------------------------------------------------------|

                           Pre - Chorus
e|---------------------------------------|
B|---------------------------------------|
G|---------------------------------------|
D|----5-5-5-5-5-5-5-5---7----------------|
A|----5-5-5-5-5-5-5-5---7----------------|
D|----5-5-5-5-5-5-5-5---7-------0-2-3-0--|
      * * * * * * * *
Repeat x3

   x8    x8    x8                        
e|-----------------------------------------------------------------------------------
B|------------3----------------------------------------------------------------------
G|-3----5-----2------5---3---5-------------------------------------------------------
D|-3----5-----0------5---3---5-------3-----------------------------------------------
A|-1----3-----0------3---1---3--- 3h5--5---------------------------------------------
D|------------0----------------------------------------------------------------------

                            Breakdown                        Same palm muting rhythm throughout
e|-----------------------------------------------------------------------------------
B|-----------------------------------------------------------------------------------
G|---------------10-----------10---------10-----9---------12-----10------------------
D|---------------x------------x----------x------x--------- x-----x----6h7-6h7-6h7 6h7
A|------0-0-0-0--8---0-0-0-0--8---0-0-0--8------7---------10-----8-------------------
E|------0-0-0-0------0-0-0-0------0-0-0----------------------------------------------
        * * * *      * * * *      * * *
                                                              here just do the 2 sets of 4 palm mutes

                               Bridge
e|-----------------------------------------------------------------------------------
B|-----------------------------------------------------------------------------------
G|-------------------------------------------------10----------------10---------- 9| 
D|----5-5-5-5-5-5-5-5---3-3-3-3-3-3-3-3------------x-----------------x------------x--
A|----5-5-5-5-5-5-5-5---3-3-3-3-3-3-3-3---0-0-0-0--8-0-0-0-0--0-0-0--8---0-0-0-0- 7-0
E|----5-5-5-5-5-5-5-5---3-3-3-3-3-3-3-3---0-0-0-0----0-0-0-0--0-0-0------0-0-0-0----0
                                          * * * *    * * * *  * * *      * * * *    *
e|--------------------------------------------------------------|
B|--------------------------------------------------------------|
G|--------------------------------------------------------------|
D|----5-5-5-5-5-5-5-5---3-3-3-3-3-3-3-3----1-1-1-1-1-1-1-1---7--|
A|----5-5-5-5-5-5-5-5---3-3-3-3-3-3-3-3----1-1-1-1-1-1-1-1---7--|
E|----5-5-5-5-5-5-5-5---3-3-3-3-3-3-3-3----1-1-1-1-1-1-1-1---7--|

Solo Chorus 2nd to last chord is 777

Repeat Chorus twice

End song with Breakdown

Intro x1
Verse x1
Pre Chorus x1
Chorus x1
Breakdown x1
Verse x1
Pre Chorus x1
Chorus x1
Bridge x1
Solo chorus
Chorus x2
Breakdown x1

I figured the whole song in 1 day
************************************

| /   slide up
| \   slide down
| h   hammer-on
| p   pull-off
| ~   vibrato
| +   harmonic
| x   Mute note
| b   Bend
| pb  Pre-bend
| br  Bend release
| pbr Pre-bend release
| brb Bend release bend

************************************
Suggest correction
Give kudos to tab author, rate the tab!
1 2 3 4 5
comments
print report bad tab
guest
You may want to rate the tab now too:
select rating
Wanna post a correction for this tab? Suggest correction