Oops, an error
Loading. Please wait.

Everytime You Turn Around tab

439 views 9 this week
no commentswrite comment
1 2 3 4 5
2 more votes to show rating
add to favorites
×
Save as Personal and add changes to this tab that will be seen only by you. Learn more ›
×
You can save this tab as Personal to edit and correct it or add notes. All changes will be seen only by you. Learn more »
launch autoscroll
font size
0
reset
how to read this tab
guitar tuner
edit
Autoscroll
slow
fast
+/-
esc
set tempo
stop
-------------------------------------------------------------------------------
                          Daughtry - Everytime You Turn Around
-------------------------------------------------------------------------------
Tabbed by: Diesel
E-mail: daughtryfan497@gmail.com

Tuning: Eb or half step down

                       Rhythm: Josh Steely
                       
                       Fills: Brian Craddock (with times)   

                                  Intro

e|-------------0--------------------------------------------------------------|
B|-------------0--------------------------------------------------------------|
G|-6-4-2-----2-x--------------------------------------------------------------|
D|-6-4-2-6-4-2-2--repeat-x2---------------------------------------------------|
A|-4-2-0-6-4-0-2--------------------------------------------------------------|
E|-------4-2---0--------------------------------------------------------------|

                                  Verse

e|---------------------------------------------------------------------------|
B|---------------------------------------------------------------------------|
G|-44444---------------------2-----------------------------------------------|
D|-44444-x2-44444----444---6-2-22222-----------------------------------------|
A|-22222----44444-x1-444---6-0-22222-repeat----------------------------------|
E|----------22222----222-0-4---00000-----------------------------------------|

                                  Chorus

e|---------------------------------------------------------------------------|
B|---------------------------------------------------------------------------|
G|-2-----4--2222--6--4-----------2--4----------------------------------------|
D|-2--2--4--2222--6--4--repeat---2--4----------------------------------------|
A|-0--2--2--0000--4--2-----------0--2----------------------------------------|
E|----0----------------------------------------------------------------------|

                                  Bridge

e|---------------------------------------------------------------------------|
B|---------------------------------------------------------------------------|
G|------4---6---2---4--------------------------------------------------------|
D|--2---4---6---2---4--------------------------------------------------------|
A|--2---2---4---0---2--------------------------------------------------------|
E|--0------------------------------------------------------------------------|


                                  Fills

                            Verse fill: 00:27

e|---------------------------------------------------------------------------|
B|---------9-10-12b-12~------------------------------------------------------|
G|---8/9h11------------------------------------------------------------------|
D|---------------------------------------------------------------------------|
A|---------------------------------------------------------------------------|
E|---------------------------------------------------------------------------|

                            Chorus Fill: (E5)

e|---------------------------------------------------------------------------|
B|---------------------------------------------------------------------------|
G|---8-9-8-9-8-9-------------------------------------------------------------------|
D|---------------9~------------------------------------------------------------|
A|---------------------------------------------------------------------------|
E|---------------------------------------------------------------------------|

                             Bridge Fill: 02:23

e|---------------------------------------------------------------------------|
B|---------------------------------------------------------------------------|
G|-----------------------13----11---16----9---11----------------------------|
D|-----------------------x-----x-----x----x---x------------------------------|
A|-----------------------11----9----14----7---9------------------------------|
E|---------------------------------------------------------------------------|

                              Outro Fills:

                         03:08             03:14   
e|----------------------------------------------------12-14b-----------------|
B|---------------------9h12p9--12b---------------12-14-----------------------|
G|-------------------9--------9----9~----------------------------------------|
D|---------------------------------------------------------------------------|
A|---------------------------------------------------------------------------|
E|---------------------------------------------------------------------------|

Intro x2
Verse x2 (add fill)
Intro
Chorus x2 (add fill)
Intro x2
Verse x2
Chorus x2 (add fill
Bridge (add fill)
Chorus (add fill)
Intro x4 (add outro fills)
************************************

| /   slide up
| \   slide down
| h   hammer-on
| p   pull-off
| ~   vibrato
| +   harmonic
| x   Mute note
| b   Bend
| pb  Pre-bend
| br  Bend release
| pbr Pre-bend release
| brb Bend release bend

************************************
Suggest correction
Creating personal tab
Creating personal tab
You can edit any tab online and save it as your Personal.

You can edit, replace or remove any tab part or add personal notes – all changes will be seen only by you.

Personal tabs can be accessed anytime from any device, even offline.
Learn more »
Give kudos to tab author, rate the tab!
1 2 3 4 5
comments
print report bad tab
guest
You may want to rate the tab now too:
select rating
Wanna post a correction for this tab? Suggest correction