Oops, an error
Loading. Please wait.

Feels Like Tonight Tab

version 1
version 1

Intro

Whole song

Interactive

  • Full tabs, but with no vocals.
13,974 views 1 this week
3 commentsread comments
1 2 3 4 5
accurate
x 4
add to favorites
launch autoscroll
font size
0
reset
how to read this tab
guitar tuner
Autoscroll
slow
fast
+/-
esc
set tempo
stop
Help us to improve Ultimate-Guitar.com Take our survey!
×
Author
Difficulty
novice
This is a great song
im not a 100% sure on this tab but it sounds right to me 
enjoy!

e|------------------------------------------------------|
b|---7-7-7--7-7-7---7-7-7-7---7-7-7-7---7-7-7-7---------|
g|----6-6-6--6-6-6---6-6-6-6---6-6-6-6---6-6-6-6--------|
d|-----8-8-8--9-9-9---8-8-9-9---8-8-9-9---8-8-9-9-------|
a|------------------------------------------------------|
E|------------------------------------------------------|

your on your own for the rest of the song but it seems pretty easy
Suggest correction
comments
print report bad tab
3 comments total.
0 reply
PLaYiTBYeaR 42 wrote on October 29 2007, 06:58 pm

thats pathetic. i will give you this, ive listened to the song and its hard to tell what the real tab is but that was still pathetic.

0 reply
Pericoloso 51 wrote on May 23 2008, 01:44 pm


e|--------------------------------------------|
b|---7-7-7---6-6-6---7-7-7---7-7-7-----------|
g|----6-6-6---6-6-6---6-6-6---6-6-6----------|
d|-----4-4-----4-4-----4-4-----4-4-----------|
a|--------------------------------------------|
E|------------------------------------------------------|

0 reply
Pericoloso 51 wrote on May 23 2008, 01:45 pm


e|--------------------------------------------|
b|---7-7-7---6-6-6---7-7-7---7-7-7------------|
g|----6-6-6---6-6-6---6-6-6---6-6-6-----------|
d|-----4-4-----4-4-----4-4-----4-4------------|
a|--------------------------------------------|
E|------------------------------------------------------|

guest
You may want to rate the tab now too:
select rating
Wanna post a correction for this tab? Suggest correction