Oops, an error
Loading. Please wait.

Feels Like Tonight Tab

version 1
version 1

Whole song

58,280 views 21 this week
15 commentsread comments
1 2 3 4 5
accurate
x 23
add to favorites
launch autoscroll
font size
0
reset
how to read this tab
guitar tuner
Tab Pro tools
  • play this tab
  • loop segment
  • change instrument
  • show fretboard
  • metronome
×
Best way to learn
"Feels Like Tonight"
Autoscroll
slow
fast
+/-
esc
set tempo
stop
Contributor
Yea that first tab feels like tonight seemed kinda off so this is my intro n i hope yall 
me yea lol good luck!

DAUGHTRY - FEELS LIKE TONIGT

(INTRO)
|-3----3-----3----2----2-----2----3----3----3----3----3----3----|
|---3----3-----3----3----3-----3----3----3----3----3----3----3--|
|-----0----0----------0----0---------0----0---------0----0------|  5x
|---------------------------------------------------------------|
|---------------------------------------------------------------|
|---------------------------------------------------------------|

 (prechorus)
|------|
|------|
|-4----|
|-4----| 8x
|-2----|
|------|


Its feels like tonight...
[[these are chords for the chorus]]

 [G]  [D]  [E]  [G2]
|-3----2----0----0----------------------------|
|-3----3----0----3----------------------------|
|-0----2----0----0----------------------------|
|-0----0----2----2----------------------------|
|-2----0----2----3----------------------------|   {NOW GO BACK PLAY IT AGAIN}
|-3----0----0---------------------------------|


I never felt like this before...
 [E]
|-0---3---2---0-------------------------------|
|-0---3---3---3-------------------------------|
|-0---0---2---0-------------------------------|
|-2---0---0---2-------------------------------|
|-2---2---0---3-------------------------------|
|-----3---0-----------------------------------|

Back to chorus

hope yall know the whole song now lol rate me please cause i made this on my own n i 
yall like my tab n ull know the whoole song  GOOD LUCK N PLEASE RATE :)
comments
print report bad tab
15 comments total. Showing first comments. show 2 bad comments
+7 reply
Rock_On891 wrote on June 30 2007, 01:44 pm

goood tab...the tunings is in 1/2 Step Down 5*s

I want to post or [tab]
guest
You may want to rate the tab now too:
select rating
Please do not post tabs as comments. Select "correction" instead!