Oops, an error
Loading. Please wait.

Feels Like Tonight Tab

version 2
version 2

Whole song

Interactive

  • Full tabs, but with no vocals.
12,171 views 1 this week
1 commentread comment
1 2 3 4 5
accurate
x 4
add to favorites
launch autoscroll
font size
0
reset
how to read this tab
guitar tuner
Autoscroll
slow
fast
+/-
esc
set tempo
stop
Help us to improve Ultimate-Guitar.com Take our survey!
×
Author
Difficulty
novice
One of the Guitars-I'll figure out the other guitar leads soon
Intro & Verse #1 (Play this 1x before bass comes in, then play 4x)

e-------------------------------------------|
B-7--7--7--6--6--6--7--7--7--7--7--7--------|
G--6--6--6--6--6--6--6--6--6--6--6--6-------| (Clean)
D---4--4-----4--4-----4--4-----4--4---------|
A-------------------------------------------|
E-------------------------------------------|

Chorus w/moderate distortion

e-------------------------------------------|
B-------------------------------------------|
G----------6--6--6--------------------------| (Play 2x)
D-4--4--4--6--6--6--8--8--8--9--9--9--------|
A-4--4--4--4--4--4--8--8--8--9--9--9--------|
E-2--2--2-----------6--6--6--7--7--7--------|

e-------------------------------------------|
B-------------------------------------------|
G----------66666666-------------------------| (Play 1x)
D-44444444-66666666-88888888-99999999-------|
A-44444444-44444444-88888888-99999999-------|
E-22222222----------66666666-77777777-------|

e-------------------------------------------|
B-------------------------------------------|
G-------------------------------------------| (Play 1x)
D-4--4--4--8--8--8--9(hold)-----------------|
A-4--4--4--6--6--6--9(hold)-----------------|
E-2--2--2--6--6--6--7(hold)-----------------|

Repeat Intro as Verse #2(Clean)

e-------------------------------------------|
B-7--7--7--6--6--6--7--7--7--7--7--7--------|
G--6--6--6--6--6--6--6--6--6--6--6--6-------| (Play 5X)
D---4--4-----4--4-----4--4-----4--4---------|
A-------------------------------------------|
E-------------------------------------------|

Chorus w/ moderate distortion

e-------------------------------------------|
B-------------------------------------------|
G----------6--6--6--------------------------| (Play 2x)
D-4--4--4--6--6--6--8--8--8--9--9--9--------|
A-4--4--4--4--4--4--8--8--8--9--9--9--------|
E-2--2--2-----------6--6--6--7--7--7--------|

e-------------------------------------------|
B-------------------------------------------|
G----------66666666-------------------------| (Play 1x)
D-44444444-66666666-88888888-99999999-------|
A-44444444-44444444-88888888-99999999-------|
E-22222222----------66666666-77777777-------|

e-------------------------------------------|
B-------------------------------------------|
G-------------------------------------------| (Play 1x)
D-4--4--4--8--8--8--9--9--9--99999999-------|
A-4--4--4--6--6--6--9--9--9--99999999-------|
E-2--2--2--6--6--6--7--7--7--77777777-------|

Bridge Option #1 w/moderate distortion(Can be played this way)

e-------------------------------------------|
B-------------------------------------------|
G----------66666666-4444444444444444--------| (Play 4x)
D-44444444-66666666-4444444444444444--------|
A-44444444-44444444-2222222222222222--------|
E-22222222----------------------------------|

Bridge Option #2 w/ moderate distortion(or this way)

e-------------------------------------------|
B-------------------------------------------|
G----------66666666-------------------------| (Play 4x)
D-44444444-66666666-9999999999999999--------| (Last Notes are the same)
A-44444444-44444444-9999999999999999--------|
E-22222222----------7777777777777777--------|

e-------------------------------------------|
B-7--7--7--6--6--6--7--7--7--7--7--7--------|
G--6--6--6--6--6--6--6--6--6--6--6--6-------| (Clean)
D---4--4-----4--4-----4--4-----4--4---------|
A-------------------------------------------|
E-------------------------------------------|

Outro Chorus w/ moderate distortion

e-------------------------------------------|
B-------------------------------------------|
G----------6--6--6--------------------------| (Play 2x)
D-4--4--4--6--6--6--8--8--8--9--9--9--------|
A-4--4--4--4--4--4--8--8--8--9--9--9--------|
E-2--2--2-----------6--6--6--7--7--7--------|

e-------------------------------------------|
B-------------------------------------------|
G----------66666666-------------------------| (Play 1x)
D-44444444-66666666-88888888-99999999-------|
A-44444444-44444444-88888888-99999999-------|
E-22222222----------66666666-77777777-------|

e-------------------------------------------|
B-------------------------------------------|
G-------------------------------------------| (Play 1x)
D-4--4--4--8--8--8--9--9--9--99999999-------|
A-4--4--4--6--6--6--9--9--9--99999999-------|
E-2--2--2--6--6--6--7--7--7--77777777-------|

e-------------------------------------------|
B-------------------------------------------|
G----------66666666-------------------------| (Play 2x)
D-44444444-66666666-88888888-99999999-------|
A-44444444-44444444-88888888-99999999-------|
E-22222222----------66666666-77777777-------|

e-------------------------------------------|
B-------------------------------------------|
G----------6--6--6--------------------------| (Play 1x)
D-4--4--4--6--6--6--8--8--8--9--9--9--------|
A-4--4--4--4--4--4--8--8--8--9--9--9--------|
E-2--2--2-----------6--6--6--7--7--7--------|

e--------------------------------------------|
B--------------------------------------------|
G--------------------------------------------| (Play 1x)
D-4--4--4--8--8--8--9(Hold)----------4-------|(Hold)
A-4--4--4--8--8--8--9(Hold)----------4-------|(Hold)
E-2--2--2--6--6--6--9(Hold)----------2-------|(Hold)
Suggest correction
comments
print report bad tab
1 comment total.
0 reply
CalebR13 10 wrote on March 3 2010, 08:55 pm

Dude this is completly wrong... he plays it a half step down and nothing like wat u put..

guest
You may want to rate the tab now too:
select rating
Wanna post a correction for this tab? Suggest correction