Oops, an error
Loading. Please wait.

Ghost Of Me Tab

version 1
version 1

Whole song

Interactive

8,178 views 1 this week
1 commentread comment
1 2 3 4 5
accurate
x 5
add to favorites
launch autoscroll
font size
0
reset
how to read this tab
guitar tuner
Autoscroll
slow
fast
+/-
esc
set tempo
stop
Help us to improve Ultimate-Guitar.com Take our survey!
×
Author
PTL

               Daughtry – Ghost of me
From “Leave this town”

Tabbed by: Sanjeev George, Basil George and Thomas George
Email: SanjeevGeorge123@yahoo.co.in

Submitted to and for www.ultimate-guitar.com, the site for all your tab needs

Tuning:std

This is tabbed for only 2 guitars but u may also use a third acoustic guitar 
playing the same chords throughout the song

Listen to song for better understanding

Intro
D5 fade in

Guitar 1(W/dist)
e|-----------------------------------------------|
B|-----------------------------------------------|
G|-0-0-------------------------------------------|x2
D|------3-3-3--2-2-2--5-5--3-3-3--2-2-2----------|
A|----------------------------------------3-3----|
E|-----------------------------------------------|

e|----------|
B|----------|
G|----------|
D|----------|
A|-3/5v-----|
E|----------|

Guitar 2
e|---------------------------------------------------|
B|---------------------------------------------------|
G|---------------------------------------------------|
D|----7777777777777777----333333333333/5555----7~----|
A|----5555555555555555----111111111111/3333----5~----|
E|---------------------------------------------------|

Verse
Guitar 1(Clean)
e|--------------------------------------------------------------------|
B|------------------------------------------1--------------3----------|
G|----------5---------------5-------------3---3----------5---5--------|
D|--------7----7----------7----7--------3-------3------5-------5------|x2
A|------5--------5------5--------5----1-----------1--3-----------3----|
E|----5------------5--5------------5----------------------------------|

e|--------------------------------------------------------------------|
B|------------------------------------------3--------------3----------|
G|----------5---------------5-------------5---5----------5---5--------|
D|--------7----7----------7----7--------5-------5------5-------5------|
A|------5--------5------5--------5----3-----------3--3-----------3----|
E|----5------------5--5------------5----------------------------------|
“Wanna put ur mind……”

e|--------------------------------------------------------------------|
B|------------------------------------------1--------------3----------|
G|----------5---------------5-------------3---3----------5---5--------|
D|--------7----7----------7----7--------3-------3------5-------5------|
A|------5--------5------5--------5----1-----------1--3-----------3----|
E|----5------------5--5------------5----------------------------------|

e|---------------------|
B|---------------------|
G|----------5----------|
D|--------7----7-------|
A|------5--------5-----|
E|----5------------5---|

Guitar 2 (W/dist) breaks in

e|------------------------------|
B|------------------------------|
G|----10-10-10--9-9-9-----------|
D|---------------------10-10----|x2
A|------------------------------|
E|------------------------------|
      ===Palm mute==========
“wanna put ur mind……”

e|------------------------------|
B|------------------------------|
G|----7-7-7--5-5-5--------------|
D|------------------5-5---------|x2
A|------------------------------|
E|------------------------------|
     ===Palm mute======

e|------------------------------------------------------|
B|------------------------------------------------------|
G|----10-10-10--9-9-9---------10-10-10--9-9-9--12-12----|
D|---------------------10-10----------------------------|
A|------------------------------------------------------|
E|------------------------------------------------------|

Chorus

Guitar 1(W/dist)
e|---------------------------------------------------------------------------|
B|---------------------------------------------------------------------------|
G|---------------------------------------------------------------------------|x
D|--3-3-3--2-2-2--5-5--3-3-3--2-2--3-3--2-2-2--0-0-0--2-2---0-0-0--2-3-5-3-2-|2
A|---------------------------------------------------------------------------|
E|---------------------------------------------------------------------------|

Guitar 2(W/dist)
e|----------------------------------------------|
B|----------------------------------------------|
G|----------------------------------------------|
D|--77777777--33333333--55555555--333--55555----|x2
A|--55555555--11111111--33333333--111--33333----|
E|----------------------------------------------|

Both guitars
e|-------------------------------|
B|-------------------------------|
G|-------------------------------|
D|-------------------------------|
A|--5555555555555/77-888888888---|
E|--3333333333333/55-666666666---|
  “when you're sleeping…..”   “believe that…”

You’re looking at the ghost of me!!

Guitar 1(W/dist)
e|-----------------------------------------------|
B|-----------------------------------------------|
G|-0-0-------------------------------------------|x2
D|------3-3-3--2-2-2--5-5--3-3-3--2-2-2----------|
A|----------------------------------------3-3----|
E|-----------------------------------------------|

e|----------|
B|----------|
G|----------|
D|----------|
A|-3/5v-----|
E|----------|

Guitar 2
e|---------------------------------------------------|
B|---------------------------------------------------|
G|---------------------------------------------------|
D|----7777777777777777----333333333333/5555----7~----|
A|----5555555555555555----111111111111/3333----5~----|
E|---------------------------------------------------|


Verse 2
Chorus again
Little different before the bridge

Both guitars
e|--------------------------------------|
B|--------------------------------------|
G|--------------------------------------|
D|--------------------------------------|
A|--5555555555555/77-8888888888888888---|
E|--3333333333333/55-6666666666666666---|
“when you're sleeping…..”   “believe that…”


Before bridge

Guitar 1
e|-----------------------------------------|
B|------------------------------8---10\----|
G|----7---7---9---9---10---10--------------|
D|------7---7---7---7----7----7---7--------|
A|-----------------------------------------|
E|-----------------------------------------|
   =========palm muted===============

Guitar 2
e|-------------------------|
B|-------------------------|
G|-------------------------|
D|----7777777777777777-----|
A|----5555555555555555-----|
E|-------------------------|
    ===palm mute and gradually release==

Bridge

Both guitars
e|-------------------------------------------------|
B|-------------------------------------------------|
G|-------------------------------------------------|
D|----33333333------------55555555-----------------|
A|----11111111--33333333--33333333—-55555555/77----|
E|--------------11111111------------33333333/55----|


e|------------------------------------------------------------------|
B|------------------------------------------------------------------|
G|------------------------------------------------------------------|
D|----33333333------------55555555------------------------------7\--|
A|----11111111--33333333--33333333--55555555--7777777777777777—-5\--|
E|--------------11111111------------33333333--5555555555555555------|

you’re looking at the ghost of me!!!

Solo(Guitar 1)
e|------------------------------------------------------|
B|----------------------------15-15-15-15-14-14-14-14---|
G|----15-15-15-15-14-14-14-14---------------------------|
D|------------------------------------------------------|
A|------------------------------------------------------|
E|------------------------------------------------------|

e|---------------------------------|
B|-18-18-18-18-17-17-17-17-15\-----|
G|---------------------------------|
D|---------------------------------|
A|---------------------------------|
E|---------------------------------|


Chorus again but softer initially
Guitar 1(w/Soft dist)
e|---------------------------------------------|
B|---------------------------------------------|
G|---------------------------------------------|
D|----777--777--333--333--555--555-------------|
A|----555--555--111--111--333--333--555--555---|
E|----------------------------------333--333---|

Then resume as before but little prolonged

Bridge repeat

Outro solo(Guitar 1)
e|-------13-13v--13-13v—13b15r13-12v----12b13r12---------12------|
B|----3/-----------------------------------------15v--15---------|
G|---------------------------------------------------------------|
D|---------------------------------------------------------------|
A|---------------------------------------------------------------|
E|---------------------------------------------------------------|

e|-----13-13v--13-13v—13h17-12v----12b13r12---------12/17v-17vvvvvvvv\\------|
B|------------------------------------------15v------------------------------|
G|---------------------------------------------------------------------------|
D|---------------------------------------------------------------------------|
A|---------------------------------------------------------------------------|
E|---------------------------------------------------------------------------|


Guitar 2
e|-------------------------------------------------|
B|-------------------------------------------------|
G|-------------------------------------------------|
D|----33333333------------55555555-----------------|
A|----11111111--33333333--33333333—-55555555/77----|
E|--------------11111111------------33333333/55----|


e|------------------------------------------------------------------|
B|------------------------------------------------------------------|
G|------------------------------------------------------------------|
D|----33333333------------55555555------------------------------7\--|
A|----11111111--33333333--33333333--55555555--7777777777777777—-5\--|
E|--------------11111111------------33333333--5555555555555555------|


Verse 1
Thought it was dead and buried
Then it woke you up last night
Sought it so damn worried
You've been tossing turning
Whole thing's been burning

I wanna put your mind at ease again
Make everything allright
I know it's getting underneath your skin
I try to tell you now

Chorus
Don't look over your shoulder
'Cause that's just the ghost of me
You're seeing in your dreams
Wait There's no rhyme or reasons
Sometimes there's no meaning
In the visions when you're sleeping
Don't wake up and believe that
You're looking at the ghost of me

You're looking at the ghost of me

Verse 2
Your imagination
And emotions running wild
Fueling my frustration
Like a fire burning
Clock is turning

I,I know it's getting underneath your skin
I try to tell you now

Chorus

Bridge
Haaa..aa..aaa

Yeah, you're looking at the ghost of me
Yeah, you're looking at the ghost of me

Solo

Chorus (softly)

Outro with solo
Yeah, you're looking at the ghost of me
Yeah, you're looking at the ghost of me

| /  slide up
| \  slide down
| h  hammer-on
| p  pull-off
| ~  let ring
| +  harmonic
| x  Mute note
| v  vibrato
| \\ pick slide


Please rate the tab.
===============================================================================


Suggest correction new What's this?
You can suggest a correction to this tab. Community and Mods will review your correction and vote to approve or reject it.
comments
print report bad tab
1 comment total.
0 reply
guitargirl:) 17 wrote on April 17 2011, 05:05 pm

thanx 4 getting this out there!! daughtry
my man, and daughtry fans are my friends ;)
but on the first verse, the lyrics aren't
"...whole thing burning..." they're
"...both ends burning..."
Try! And great tab, amigos (...y amigas!)

guest
You may want to rate the tab now too:
select rating
Please do not post tabs as comments. Select "correction" instead!