Oops, an error
Loading. Please wait.

Gone Tab

1,508 views 6 this week
no commentswrite comment
1 2 3 4 5
please rate
add to favorites
launch autoscroll
font size
0
reset
how to read this tab
guitar tuner
Autoscroll
slow
fast
+/-
esc
set tempo
stop
Help us to improve Ultimate-Guitar.com Take our survey!
×
Contributor
Difficulty
Tuning
intermediate
D A D G B E
Chris Daughtry - Gone

Tabbed By: Brett LaBoube

Intro:Dm-C-Bb-C-Bb

E---------------10-----------------------------------------------------|
B-----------------------13---10~ ---------------10~ --------------13~--|
G------10h12-----12---------------------9-10------------9-10-----------|
D--12---------------------------------12---------------12--------------|
A----------------------------------------------------------------------|
D----------------------------------------------------------------------|


       Dm        C              Bb
Feeling like this could only mean
          C-Bb
I'm sinking.
     Dm         C              Bb
Feeling like this could only mean
       C
I'm sinking.
              Bb
Well, I'm sinking.

Pull me up.

Verse 1: Lead
"only mean")       (Im Sinking...)
E-------------------------------------------------|
B ------------------------10~ -----------13~------|
G---------------------9-10------------9-10--------|
D-5h7---------------12--------------12------------|
A-------------------------------------------------|
D-------------------------------------------------|

Chorus:
Dm                             Bb
Every time I see your clothes scattered out on the floor,
            C
I say I thought you would be home.
                  Bb
You said you never would be gone.
Dm                        Bb
Every time I see the light not burning on the porch,
           C
I say I thought you would be home.
                    Bb
You said you never would be gone,
         Dm-C-Bb-C
But you are.
      Dm-C-Bb
You are.

Post Chorus:
E------------10---------------------5-----------------10---------------|
B-----------------------13~ ------------8~ -----------------13~---10~--|
G------10-12-----12-------------5-7---7---------10-12----12------------|
D--12-------------------------7--------------12------------------------|
A----------------------------------------------------------------------|
D----------------------------------------------------------------------|

Verse 2:
 Dm             C                Bb
Feeling overwhelmed, I take a dive
       C                                      Bb
To a once overfilled but now empty place to hide.
     Dm                   C              Bb
The day you turned on me is the day I died,
             C
And I've forgotten what it's like,
                   Bb
And how it feels to be alive.

Verse 2: Lead
"take a dive")       (Im Sinking...)
E--------------------------------------------------------|
B -------------------------------10~ ------------13~ ----|
G----------------------------9-10------------9-10--------|
D--------5h7---------------12--------------12------------|
A--------------------------------------------------------|
D--------------------------------------------------------|


Chorus:
Dm                             Bb
Every time I see your clothes scattered out on the floor,
            C
I say I thought you would be home.
                  Bb
You said you never would be gone.
Dm                        Bb
Every time I see the light not burning on the porch,
           C
I say I thought you would be home.
                    Bb
You said you never would be gone,
         Dm-C-Bb-C
But you are.
      Dm-C-Bb
You are.


Solo -
E------------------------------------------------------------------|
B-----------------8-------------------8--------12~-----10b12~------|
G------10-9---------10~----10-9---------10-------------12b14~------|
D-------------10------------------10-----------10~-----------------|
A------------------------------------------------------------------|
D------------------------------------------------------------------|

E------------------------------------------------------------------------|
B--------15------18-----15------18----15----18b20-18b20-18b20-18-17b18---|
G------14---14x2----14x2----14x2----14----14-----------------------------|
D------------------------------------------------------------------------|
A------------------------------------------------------------------------|
D------------------------------------------------------------------------|

E------------------------------------|
B---15--13---------------------------|
G-----------14--12-----14------------|
D-------------------15-----12~-------|
A------------------------------------|
D------------------------------------|


Dm                Bb
Reach up to the sky.
                             C
When nothing seems to go right,
                                    Bb
When nothing seems to go right for me.

 Chorus:
Dm                             Bb
Every time I see your clothes scattered out on the floor,
            C
I say I thought you would be home.
                  Bb
You said you never would be gone.
Dm                        Bb
Every time I see the light not burning on the porch,
           C
I say I thought you would be home.
                    Bb
You said you never would be gone,
         Dm-C-Bb-C
But you are.
      Dm-C-Bb
You are.


Should be close to right, a few parts im going off of just memorization because i dont 
have a guitar on me right now.
comments
We did not receive enough feedback on this tab! Please rate:
print report bad tab
1 2 3 4 5
I want to post or [tab]
guest
You may want to rate the tab now too:
select rating
Please do not post tabs as comments. Select "correction" instead!