Oops, an error
Loading. Please wait.

Home Bass Tab

version 1
version 1

Whole song

Interactive

3,604 views 12 this week
no commentswrite comment
1 2 3 4 5
excellent!
x 3
add to favorites
launch autoscroll
font size
0
reset
guitar tuner
Autoscroll
slow
fast
+/-
esc
set tempo
stop
Help us to improve Ultimate-Guitar.com Take our survey!
×
Author
Bassist-John Paul

~=Let Ring

Intro

G|--------|4----4--4-3--|--------|4--4--4--4-3--|
D|4----4--|----4--4-----|4----4--|-----4--4-----|
A|----4---|-------------|----4---|--------------|
E|--------|-------------|--------|--------------|

Verse

G|--------|4----4--|--------|4----4--4-3--|
D|4----4--|----4---|4----4--|----4--4-----|
A|----4---|--------|----4---|-------------|
E|--------|--------|--------|-------------|

G|--------|4----4-11-10-|----------|-----------|
D|4----4--|----4--------|----------|-------4-3-|
A|----4---|-------------|6---4-4---|2----2-----|
E|--------|-------------|----------|----2------|

G|---------|--------|
D|1--------|--------|
A|----4-4--|2-------|
E|---------|--------|

Chorus

G|--------------|--------------|--------------|
D|--------------|--------------|1--1-1--------|
A|-------44-4-4-|2--2-2-44-4-4-|-------4--4-4-|
E|2--2-2--------|--------------|--------------|

G|-----------| (x2)
D|-----------|
A|2--2-2--2--|
E|-----------|

G|-----------|-------|
D|-----------|-------|
A|-----4--4--|2-2-2--|
E|2--2-------|-------|

Pre-Verse

G|--------|4----4--|--------|4--4--4-4-3-1-|
D|4----4--|----4---|4----4--|-----4-4------|
A|----4---|--------|----4---|--------------|
E|--------|--------|--------|--------------|

Verse

G|--------|4----4--|--------|4----4--|
D|4----4--|----4---|4----4--|----4---|
A|----4---|--------|----4---|--------|
E|--------|--------|--------|--------|

G|--------|4----4--|---------|------------|
D|4----4--|----4---|---------|------------|
A|----4---|--------|6---4-4--|2--2--2-2-1-|
E|--------|--------|---------|-----2------|

G|---------|-----------|
D|---------|-----------|
A|----4-4--|2--2-2-2-1-|
E|2--------|-----------|

Play the Chorus, then play...

Bridge

G|----------------|----------------|----------------|
D|----------------|----------------|1-1-1-1---------|
A|4-4-4-4-4-4-4-4-|2-2-2-2-2-2-2-2-|--------4-4-4-4-|
E|----------------|----------------|----------------|

G|----------------| (x2)
D|----------------|
A|2-2-2-2-2-2-2-2-|
E|----------------|

G|-----------|-----------|
D|1----------|-----------|
A|---4--2----|2--1-------|
E|-----------|------4----|

Play the Chorus one more time, then immediately after it play...

G|-----------|-----------|-----------|---|
D|-----------|1----------|-----------|---|
A|-----4--4--|---4--2----|2--1-------|---|
E|2--2-------|-----------|------4----|2~-|

That's it.  Listen to the song for timing.
I probly dont have the # of notes right, but 
the notes themself are Ok.  Feedback is welcome.
Suggest correction
Give kudos to tab author, rate the tab!
1 2 3 4 5
comments
print report bad tab
guest
You may want to rate the tab now too:
select rating
Wanna post a correction for this tab? Suggest correction