Oops, an error
Loading. Please wait.

Its Not Over Bass Tab

version 1
version 1

Whole song

Interactive

8,389 views 6 this week
4 commentsread comments
1 2 3 4 5
accurate
x 5
add to favorites
launch autoscroll
font size
0
reset
guitar tuner
Autoscroll
slow
fast
+/-
esc
set tempo
stop
Help us to improve Ultimate-Guitar.com Take our survey!
×
Author
Difficulty
Tuning
novice
D A D G B E
Bassist: Josh Paul

Note: Paul uses a 5-string, but I tabbed it using a four.

Verse (Come in after guitar/vocal intro)

G|------|----------------|----------------|
D|------|----------------|----------------|
A|13\---|----------------|----------------|
D|------|8---6---4---6---|8---6---4---6---|

Pre-Chorus

G|----------------------|-----------------------|
D|----------------------|-----------------------|
A|------4-4-4-4-4-4-4---|-------6-6-6-6-6-6-6---|
D|8-8-8-----------------|6-6-6------------------|

Chorus

G|----------------|----------------|----------------|-------|
D|----------------|----------------|----------------|-------|
A|----------------|------------4-4-|----------------|-------|
D|4-4-6-6-8-8-6-6-|4-4-6-6-8-8-----|4-4-6-6-8-8-6-6-|4-4-3--|

Verse (Added to enhance readability)

G|----------------|----------------|----------------|----------------|
D|----------------|----------------|----------------|----------------|
A|----------------|----------------|----------------|----------------|
D|8---6---4---6---|8---6---4---6---|8---6---4---6---|8---6---4---6---|

Pre-Chorus

G|--------------------|--------------------|
D|--------------------|--------------------|
A|------4-4-4-4-4-4-4-|------6-6-6-6-6-6-6-|
D|8-8-8---------------|6-6-6---------------|

G|--------------------|--------------------|
D|--------------------|--------------------|
A|------4-4-4-4-4-4-4-|------6-6-6-6-6-6-6-|
D|8-8-8---------------|6-6-6---------------|

Chorus

G|----------------|----------------|----------------|------------|
D|----------------|----------------|----------------|------------|
A|----------------|------------4-4-|----------------|----8-8-8-8-|
D|4-4-6-6-8-8-6-6-|4-4-6-6-8-8-----|4-4-6-6-8-8-6-6-|4-4---------|

Solo

G|----------------|----------------|----------------|------------|
D|----------------|----------------|----------------|------------|
A|----------------|------------R-R-|----------------|----8-8-8-4-|
D|4-4-6-6-8-8-6-6-|4-4-6-6-8-8-----|4-4-6-6-8-8-6-6-|4-4---------|

Final Chorus

G|----------------|---------------------|----------------|--------|
D|----------------|---------------------|----------------|--------|
A|----------------|---------------------|----------------|--------|
D|4-4-6-6-8-8-6-6-|4-4-6-6-8-/15\-11----|4-4-6-6-8-8-6-6-|4-4-3-3-|

G|----------------|-----------------|----------------|-------|
D|----------------|-----------------|----------------|-------|
A|----------------|-----------464-3-|----------------|-------|
D|4-4-6-6-8-8-6-6-|4-4-6-6-8-8------|4-4-6-6-8-8-6-6-|4-4-3--|

G|-----|
D|-----|
A|-----|
D|8~---|

This tab is VERY easy.  I may not have the number of notes right, but I know the notes 
are right.  Listen to the song for timing.
Suggest correction
What's this?
You can suggest a correction to this tab. Community and Mods will review your correction and vote to approve or reject it.
comments
print report bad tab
4 comments total. Showing first comments.
-1 reply
MetalBassist93 390 wrote on February 10 2007, 11:24 pm

Nice job dude *4 stars* (the number of notes isn't right, but you mentioned that on the bottom, and good work)

-1 reply
__Ronnie__ 2,178 wrote on February 24 2007, 10:58 am

Great job on this tab. Only one minor typo Id like to point out though. In the solo it says R-R instead of 4-4.
Solo

G|----------------|----------------|----------------|------------|
D|----------------|----------------|----------------|------------|
A|----------------|------------R-R-|----------------|----8-8-8-4-|
D|4-4-6-6-8-8-6-6-|4-4-6-6-8-8-----|4-4-6-6-8-8-6-6-|4-4---------|

-1 reply
aidypie 147 wrote on February 27 2007, 06:03 pm

nice tab sounds great!

guest
You may want to rate the tab now too:
select rating
Please do not post tabs as comments. Select "correction" instead!