Oops, an error
Loading. Please wait.

Its Not Over Tab

version 1
version 1

Whole song

Interactive

33,171 views 18 this week
3 commentsread comments
1 2 3 4 5
1 last vote to show rating
add to favorites
launch autoscroll
font size
0
reset
how to read this tab
guitar tuner
Autoscroll
slow
fast
+/-
esc
set tempo
stop
Help us to improve Ultimate-Guitar.com Take our survey!
×
Author
Difficulty
intermediate
It’s Not Over
Daughtry

Drop Eb: Eb Ab Db Gb Bb Eb
     Or: D# E# C# F# A# D#
Depending on what your tuner says

I don’t have the solo yet but when I figure it out I will update it.





Intro/Verse
Distortion
With volume turned down
                  
e|------------------------------------------------------------------------| 
B|----23----23------------------------------------------------------------| 
G|---4-----4--------64----64--------------------------------------------|X2
D|--4-----4--------7-----7------------------------------------------------| 
A|-2-----0--------7-----7-------------------------------------------------| 
E|---------------5-----5--------------------------------------------------|

e|----0-----0-------------------------------------------------------------| 
B|-----3-----3------------------------------------------------------------| 
G|---4-----4--------64----64---------------------------------------------|X2
D|--4-----4--------7-----7------------------------------------------------| 
A|-2-----0--------7-----7-------------------------------------------------| 
E|---------------5-----5--------------------------------------------------|

Pre-Chorus
e|------------------------------------------------------------------------| 
B|------------------------------------------------------------------------| 
G|-44444444--22222222-----------------------------------------------------| 
D|-44444444--22222222-----------------------------------------------------| 
A|-22222222--00000000-----------------------------------------------------| 
E|------------------------------------------------------------------------|
   *******   *******
Chorus
e|------------------------------------------------------------------------| 
B|------------------------------------------------------------------------| 
G|-7777--2222--4444-------------------------------------------------------| 
D|-7777--2222--4444--4444------------------------------------------------|X3
A|-5555--0000--2222--4444-------------------------------------------------| 
E|-5555--------------2222-------------------------------------------------|


e|------------------------------------------------------------------------| 
B|------------------------------------------------------------------------| 
G|-777--------------------------------------------------------------------| 
D|-777--4~~~~~~~~~~~~~~---------------------------------------------------| 
A|-555--4~~~~~~~~~~~~~~---------------------------------------------------| 
E|-555--2~~~~~~~~~~~~~~---------------------------------------------------|

Verse
                  
e|------------------------------------------------------------------------| 
B|----23----23------------------------------------------------------------| 
G|---4-----4--------64----64---------------------------------------------|X2
D|--4-----4--------7-----7------------------------------------------------| 
A|-2-----0--------7-----7-------------------------------------------------| 
E|---------------5-----5--------------------------------------------------|



e|----0-----0-------------------------------------------------------------| 
B|-----3-----3------------------------------------------------------------| 
G|---4-----4--------64----64---------------------------------------------|X4
D|--4-----4--------7-----7------------------------------------------------| 
A|-2-----0--------7-----7-------------------------------------------------| 
E|---------------5-----5--------------------------------------------------|



Pre-Chorus
e|------------------------------------------------------------------------| 
B|------------------------------------------------------------------------| 
G|-44444444--22222222-----------------------------------------------------| 
D|-44444444--22222222----------------------------------------------------|x4
A|-22222222--00000000-----------------------------------------------------|
E|------------------------------------------------------------------------|
   ********  ********
Chorus
e|------------------------------------------------------------------------| 
B|------------------------------------------------------------------------| 
G|-7777--2222--4444-------------------------------------------------------| 
D|-7777--2222--4444--4444------------------------------------------------|X3
A|-5555--0000--2222--4444-------------------------------------------------| 
E|-5555--------------2222-------------------------------------------------|

e|------------------------------------------------------------------------| 
B|------------------------------------------------------------------------| 
G|-7777-------------------------------------------------------------------| 
D|-7777-4444444444444444--------------------------------------------------| 
A|-5555-4444444444444444--------------------------------------------------| 
E|-5555-2222222222222222--------------------------------------------------|
        ***************

Solo Rhythm
e|------------------------------------------------------------------------| 
B|------------------------------------------------------------------------| 
G|-77777777--22222222-----------------------------------------------------| 
D|-77777777--22222222----------------------------------------------------|X3
A|-55555555--00000000-----------------------------------------------------| 
E|-55555555---------------------------------------------------------------|

e|------------------------------------------------------------------------| 
B|------------------------------------------------------------------------| 
G|-77777777---------------------------------------------------------------| 
D|-77777777--4444444444444444---------------------------------------------| 
A|-55555555--4444444444444444---------------------------------------------| 
E|-55555555--2222222222222222---------------------------------------------|
             *******

Bridge
e|------------------------------------------------------------------------| 
B|------------------------------------------------------------------------| 
G|-77777777--22222222-----------------------------------------------------| 
D|-77777777--22222222----------------------------------------------------|X2
A|-55555555--00000000-----------------------------------------------------| 
E|-55555555---------------------------------------------------------------|

e|------------------------------------------------------------------------| 
B|------------------------------------------------------------------------| 
G|-77777777---------------------------------------------------------------| 
D|-77777777--4444444444444444---------------------------------------------| 
A|-55555555--4444444444444444---------------------------------------------| 
E|-55555555--2222222222222222---------------------------------------------|
             **************


Chorus
e|------------------------------------------------------------------------| 
B|------------------------------------------------------------------------| 
G|-7777--2222--4444-------------------------------------------------------| 
D|-7777--2222--4444--4444------------------------------------------------|X3
A|-5555--0000--2222--4444-------------------------------------------------| 
E|-5555--------------2222-------------------------------------------------|


e|------------------------------------------------------------------------| 
B|------------------------------------------------------------------------| 
G|-777--------------------------------------------------------------------| 
D|-777--44444444----------------------------------------------------------| 
A|-555--44444444----------------------------------------------------------| 
E|-555--22222222----------------------------------------------------------|


Chorus continued 
e|------------------------------------------------------------------------| 
B|------------------------------------------------------------------------| 
G|-77777777--22222222--44444444-------------------------------------------| 
D|-77777777--22222222--44444444--44444444--------------------------------|X3
A|-55555555--00000000--22222222--44444444---------------------------------| 
E|-55555555----------------------22222222---------------------------------|

e|------------------------------------------------------------------------| 
B|------------------------------------------------------------------------| 
G|-77777777-----------4~~~~~~~~~~~~~~~~~~~~~~~~~~~~~----------------------| 
D|-77777777--4~~~~~~~-4~~~~~~~~~~~~~~~~~~~~~~~~~~~~~----------------------| 
A|-55555555--4~~~~~~~-2~~~~~~~~~~~~~~~~~~~~~~~~~~~~~----------------------| 
E|-55555555--2~~~~~~~-----------------------------------------------------|






Suggest correction
Give kudos to tab author, rate the tab!
1 2 3 4 5
comments
print report bad tab
3 comments total.
0 reply
I-Z 214 Dec 05, 2006 02:20 PM

I mean the tunning is in Eb my bad guyz but the notes are there for u to tune it 2

0 reply
gibsonsrock 30 Dec 05, 2006 06:01 PM

u need to look at mine urs is all wrong

0 reply
gibsonsrock 30 Dec 07, 2006 07:35 PM

perhaps u should finish the whole song yet i still wont take ur tab mine is better

guest
You may want to rate the tab now too:
select rating
Wanna post a correction for this tab? Suggest correction