Oops, an error
Loading. Please wait.

Its Not Over Bass Tab

version 2
version 2

Whole song

Interactive

8,441 views 6 this week
no commentswrite comment
1 2 3 4 5
excellent!
x 3
add to favorites
launch autoscroll
font size
0
reset
guitar tuner
Autoscroll
slow
fast
+/-
esc
set tempo
stop
Help us to improve Ultimate-Guitar.com Take our survey!
×
Author
Difficulty
intermediate
This is my first tab so be easy ok

No Bass During Intro

(0:20)
Verse 1
Gb----------------------------------|x2
Db----------------------------------|(don't do
Ab-12/---2---0-0-0--5-----0-0-0--5--|slide the 
Eb---------------------3------------|second time)

Pre-Chorus
Gb-----------------------------------------------------|
Db-----------------------------------------------------|
Ab-----------------------------------------------------|
Eb-77777777-1010101010101010-33333333-1212121212121212-|
those are 10's and 12's

Chorus
Gb-------------------------------|
Db-------------------------------|
Ab-------------------------------|
Eb-333-33-5555-777-77-555-0------|

Gb-------------------------------------|
Db-------------------------------------|
Ab-------------------------------------|
Eb-333-33-5555-777-10101010-12121212/--|

Gb-----------------------------------|
Db-----------------------------------|
Ab-----------------------------------|
Eb-333-33-5555-777-77-555-0-3333-2~--|

After Chorus
Gb------------------------|
Db------------------------|
Ab-2~----0~----------0~---|
Eb-------------3~---------|

Verse 2
Gb-------------------------------|
Db-------------------------------|
Ab--2--5/-0-0-0--5-----0-0-0--5--|x4 
Eb------------------3------------|

Pre-Chorus x2
Chorus(Instead of letting the last note ring,
play x8)

Bridge
Gb-------------------------------|
Db-------------------------------|
Ab-------------------------------|
Eb-3-3-3-3-55555-7-7-7-7-5555-0--|

Gb------------------------------------------|
Db------------------------------------------|
Ab------------------------------------------|
Eb-3-3-3-3-55555-7-7-7-7-10101010-12121212--|

Gb-------------------------------|
Db-------------------------------|
Ab-------------------------------|
Eb-3-3-3-3-55555-7-7-7-7-5555-0--|

Gb-------------------------------------|
Db-------------------------------------|
Ab-------------------------------------|
Eb-33333333-22222222/1414141414141414--|
Those are 14's

Chorus
Gb-------------------------------|
Db-------------------------------|
Ab-------------------------------|
Eb-333-33-5555-777-77-555-0------|

Gb------------------------------------------|
Db------------------------------------------|
Ab------------------------------------------|
Eb-333-33-5555-77777777-10101010-12121212/--|

Rest

Gb-----------------------------------------|
Db-----------------------------------------|
Ab-----------------------------------------|
Eb-333-33-5555-777-77-555-0-3333-22222222--|

Chorus again and finish on A#
(second fret on Ab string)

And that's how I play it. You can also play on
some of the higher strings that way you don't 
have to jump up and down the fret board. I 
do it for the deeper sound that I hear in the song.
Suggest correction
Give kudos to tab author, rate the tab!
1 2 3 4 5
comments
print report bad tab
guest
You may want to rate the tab now too:
select rating
Please do not post tabs as comments. Select "correction" instead!