Oops, an error
Loading. Please wait.

Its Not Over Tab

version 2
version 2

Whole song

Interactive

126,403 views 39 this week
29 commentsread comments
1 2 3 4 5
x 57
add to favorites
launch autoscroll
font size
0
reset
how to read this tab
guitar tuner
×
Best way to learn
"Its Not Over"
Autoscroll
slow
fast
+/-
esc
set tempo
stop
Author
Difficulty
Capo
novice
1st fret
Standard tuning (E,A,D,G,B,e)

Capo 1

[Verse]
e|--------------------------------------------------|
B|-------0-1----------0-1--------0------------0-----|
G|-----2-----2------2----------2---2--------2---2---|
D|---2------------2----------2-------2----2-------2-|
A|-0------------------------------------------------|
E|--------------3----------1------------3-----------|

e|--------------------------------------------------|
B|-------0-1----------0-1--------0------------0-----|
G|-----2-----2------2----------2---2--------2---2---|
D|---2------------2----------2-------2----2-------2-|
A|-0------------------------------------------------|
E|--------------3----------1------------3-----------|

e|--------------------------------------------------|
B|-------3-1----------3-1--------1------------0-----|
G|-----2-----2------2----------2---2--------2---2---|
D|---2------------2----------2-------2----2-------2-|
A|-0------------------------------------------------|
E|--------------3----------1------------3-----------|

e|--------------------------------------------------|
B|-------3-1----------3-1--------1------------0-----|
G|-----2-----2------2----------2---2--------2---2---|
D|---2------------2----------2-------2----2-------2-|
A|-0------------------------------------------------|
E|--------------3----------1------------3-----------|

[Pre-Chorus]
e|----------------------|
B|----------------------|
G|----------7777777\5---|
D|-33333-33-7777777\5---|
A|-33333-33-5555555\3---|
E|-11111-11-------------|

[Chorus]
e|------------------------------------------|
B|------------------------------------------|
G|------------------------------------------|
D|-3--3-33-3/5-55-5-55--7--7-77-7\5-55-5-55-|
A|-3--3-33-3/5-55-5-55--7--7-77-7\5-55-5-55-|
E|-1--1-11-1/3-33-3-33--5--5-55-5\3-33-3-33-|

e|-------------------------------------------|
B|-------------------------------------------|
G|------------------------------55-5-77-7-99-|
D|-3--3-33-3/5-55-5-55--7--7-77-55-5-77-7-99-|
A|-3--3-33-3/3-55-5-55--7--7-77-33-3-55-5-77-|
E|-1--1-11-1/3-33-3-33--5--5-55--------------|

e|------------------------------------------|
B|------------------------------------------|
G|------------------------------------------|
D|-3--3-33-3/5-55-5-55--7--7-77-7\5-55-5-55-|
A|-3--3-33-3/5-55-5-55--7--7-77-7\5-55-5-55-|
E|-1--1-11-1/3-33-3-33--5--5-55-5\3-33-3-33-|

e|----------------|
B|----------------|
G|----------------|
D|-3-3-33333-33-2-|
A|-3-3-33333-33-2-|
E|-1-1-11111-11-0-|

[Verse]
e|--------------------------------------------------|
B|-------0-1----------0-1--------0------------0-----|
G|-----2-----2------2----------2---2--------2---2---|
D|---2------------2----------2-------2----2-------2-|
A|-0------------------------------------------------|
E|--------------3----------1------------3-----------|

e|--------------------------------------------------|
B|-------3-1----------3-1--------1------------0-----|
G|-----2-----2------2----------2---2--------2---2---|
D|---2------------2----------2-------2----2-------2-|
A|-0------------------------------------------------|
E|--------------3----------1------------3-----------|

e|--------------------------------------------------|
B|-------3-1----------3-1--------1------------0-----|
G|-----2-----2------2----------2---2--------2---2---|
D|---2------------2----------2-------2----2-------2-|
A|-0------------------------------------------------|
E|--------------3----------1------------3-----------|

(guitar stops playing for a little while)
(If you want, you can play this to replace the other instrument that plays the part with no guitar)
e|------------------------------------|
B|------------------33333333----------|
G|-2222222222222222-22222222-55555555-|     (x2)
D|-2222222222222222-00000000-55555555-|
A|-0000000000000000----------33333333-|
E|------------------------------------|

(Now the guitar takes over)
e|-------------------------------------|
B|-------------------------------------|
G|-22222-22-55555-55----------77777-77-|
D|-22222-22-55555-55-55555-55-77777-77-|
A|-00000-00-33333-33-55555-55-55555-55-|
E|-------------------33333-33----------|

e|-------------------------------------|
B|-------------------------------------|
G|-22222-22-55555-55----------77777-77-|
D|-22222-22-55555-55-55555-55-77777-77-|
A|-00000-00-33333-33-55555-55-55555-55-|
E|-------------------33333-33----------|

[Chorus]
e|------------------------------------------|
B|------------------------------------------|
G|------------------------------------------|
D|-3--3-33-3/5-55-5-55--7--7-77-7\5-55-5-55-|
A|-3--3-33-3/5-55-5-55--7--7-77-7\5-55-5-55-|
E|-1--1-11-1/3-33-3-33--5--5-55-5\3-33-3-33-|

e|-------------------------------------------|
B|-------------------------------------------|
G|------------------------------55-5-77-7-99-|
D|-3--3-33-3/5-55-5-55--7--7-77-55-5-77-7-99-|
A|-3--3-33-3/3-55-5-55--7--7-77-33-3-55-5-77-|
E|-1--1-11-1/3-33-3-33--5--5-55--------------|

e|------------------------------------------|
B|------------------------------------------|
G|------------------------------------------|
D|-3--3-33-3/5-55-5-55--7--7-77-7\5-55-5-55-|
A|-3--3-33-3/5-55-5-55--7--7-77-7\5-55-5-55-|
E|-1--1-11-1/3-33-3-33--5--5-55-5\3-33-3-33-|

e|----------------------------|
B|----------------------------|
G|----------------------------|
D|-3-3-33333-33-2-22222222222-|
A|-3-3-33333-33-2-22222222222-|
E|-1-1-11111-11-0-00000000000-|

[Solo]
e|-8-5-7-3-0/8-5-7-3-0/8-10--12-15--10-12--17-19-|
B|-----------------------------------------------|
G|-----------------------------------------------|
D|-----------------------------------------------|
A|-----------------------------------------------|
E|-----------------------------------------------|
(solo ends)

e|------------------------------------------|
B|------------------------------------------|
G|------------------------------------------|
D|-3--3-33-3/5-55-5-55--7--7-77-7\5-55-5-55-|
A|-3--3-33-3/5-55-5-55--7--7-77-7\5-55-5-55-|
E|-1--1-11-1/3-33-3-33--5--5-55-5\3-33-3-33-|

e|-------------------------|
B|-------------------------|
G|-------------------------|
D|-3-3-33333-33-2-22222222-|
A|-3-3-33333-33-2-22222222-|
E|-1-1-11111-11-0-00000000-|

[Chorus]
e|------------------------------------------|
B|------------------------------------------|
G|------------------------------------------|
D|-3--3-33-3/5-55-5-55--7--7-77-7\5-55-5-55-|
A|-3--3-33-3/5-55-5-55--7--7-77-7\5-55-5-55-|
E|-1--1-11-1/3-33-3-33--5--5-55-5\3-33-3-33-|

e|--------------------------------|
B|--------------------------------|
G|------------------------------5-|
D|-3--3-33-3/5-55-5-55--7--7-77-5-|
A|-3--3-33-3/3-55-5-55--7--7-77-3-|
E|-1--1-11-1/3-33-3-33--5--5-55---|

e|------------------------------------------|
B|------------------------------------------|
G|------------------------------------------|
D|-3--3-33-3/5-55-5-55--7--7-77-7\5-55-5-55-|
A|-3--3-33-3/5-55-5-55--7--7-77-7\5-55-5-55-|
E|-1--1-11-1/3-33-3-33--5--5-55-5\3-33-3-33-|

e|-------------------------|
B|-------------------------|
G|-------------------------|
D|-3-3-33333-33-2-22222222-|
A|-3-3-33333-33-2-22222222-|
E|-1-1-11111-11-0-00000000-|

e|------------------------------------------|
B|------------------------------------------|
G|------------------------------------------|
D|-3--3-33-3/5-55-5-55--7--7-77-7\5-55-5-55-|
A|-3--3-33-3/5-55-5-55--7--7-77-7\5-55-5-55-|
E|-1--1-11-1/3-33-3-33--5--5-55-5\3-33-3-33-|

e|-------------------------------------------|
B|-------------------------------------------|
G|------------------------------55-5-77-7-99-|
D|-3--3-33-3/5-55-5-55--7--7-77-55-5-77-7-99-|
A|-3--3-33-3/3-55-5-55--7--7-77-33-3-55-5-77-|
E|-1--1-11-1/3-33-3-33--5--5-55--------------|

e|------------------------------------------|
B|------------------------------------------|
G|------------------------------------------|
D|-3--3-33-3/5-55-5-55--7--7-77-7\5-55-5-55-|
A|-3--3-33-3/5-55-5-55--7--7-77-7\5-55-5-55-|
E|-1--1-11-1/3-33-3-33--5--5-55-5\3-33-3-33-|

e|------------------|
B|------------------|
G|------------------|
D|-3-3-33333-33-2-2-|  (hold last note for around 5 seconds)
A|-3-3-33333-33-2-2-|
E|-1-1-11111-11-0-0-|
Suggest correction
comments
print report bad tab
29 comments total. Showing first comments.
0 reply
I-Z 214 Dec 06, 2006 07:47 AM

its the right tab but wrong tunning

u need to tune it to drop Eb

Eb,Ab,Db,Gb,Bb,eb

+2 reply
Rock_On891 10 Dec 26, 2006 07:33 PM

sounds pretty good..a little confusing to read though

+2 reply
incubosity 1,574 Dec 27, 2006 06:10 PM

I-Z, you are nuts...he did tune it in Eb. The tab is stellar - 5 stars all the way. It will tough to top this tab.

guest
You may want to rate the tab now too:
select rating
Wanna post a correction for this tab? Suggest correction