Oops, an error
Loading. Please wait.

Its Not Over Tab

version 3
version 3

Whole song

Interactive

136 views 1 this week
no commentswrite comment
1 2 3 4 5
3 more votes to show rating
add to favorites
launch autoscroll
font size
0
reset
how to read this tab
guitar tuner
Autoscroll
slow
fast
+/-
esc
set tempo
stop
Author
Tuning
D# G# C# F# A# D#
[Intro]

D#|---------------------------------------------------------------------------|
A#|----2-3----2-3----2-0----2-0-----------------------------------------------|
F#|---4---4--4---4--4---4--4---0----------------------------------------------|
C#|--4------4------4------4---------------------------------------------------|
G#|-2------0-------------0----------------------------------------------------|
D#|---------------3-----------------------------------------------------------|

D#|----0------0--------------------------------------------------------------|
A#|-----3------3-----3-0------2-0-------------------------------------------|
F#|---4--4---4--4---4---4----4---4-------------------------------------------|
C#|--4------4------4--------4------------------------------------------------|
G#|-2------0---------------0-------------------------------------------------|
D#|---------------3----------------------------------------------------------|

D#|--------------------------------------------------------------------------|
A#|--------------------------------------------------------------------------|
F#|--------------------------------------------------------------------------|
C#|--5-5-5-5-5-5--7-7-7-7-7-7-7-7--------------------------------------------|
G#|--5-5-5-5-5-5--7-7-7-7-7-7-7-7--------------------------------------------|
D#|--3-3-3-3-3-3--5-5-5-5-5-5-5-5--------------------------------------------|
     * * * * * *


[Chorus]

D#|-------------------------------------------------------------------------|
A#|-------------------------------------------------------------------------|
F#|------------------------7-6-7-9-11---------------------------------------|
C#|---5--7--9--7--5--7--9--x-x-x-x-x--5--7--9--7--5--4----------------------|
G#|---5--7--9--7--5--7--9--5-4-5-7-9--5--7--9--7--5--4----------------------|
D#|---3--5--7--5--3--5--7-------------3--5--7--5--3--2----------------------|


[Instrumental]

D#|---------------------------------------------------------------------------|
A#|----2-3----2-3----2-0----2-0-----------------------------------------------|
F#|---4---4--4---4--4---4--4---0----------------------------------------------|
C#|--4------4------4------4---------------------------------------------------|
G#|-2------0-------------0----------------------------------------------------|
D#|---------------3-----------------------------------------------------------|

D#|----0------0-------------------------------------------------------------|
A#|-----3------3-----3-0------2-0-------------------------------------------|
F#|---4--4---4--4---4---4----4---4------------------------------------------|
C#|--4------4------4--------4-----------------------------------------------|
G#|-2------0---------------0------------------------------------------------|
D#|---------------3---------------------------------------------------------|


D#|-------------------------------------------------------------------------|
A#|-------------------------------------------------------------------------|
F#|-------------------------------------------------------------------------|
C#|-9--7--5--9--7---5-5-5-5-5-5--7-7-7-7-7-7-7-7----------------------------|
G#|-9--7--5--9--7---5-5-5-5-5-5--7-7-7-7-7-7-7-7----------------------------|
D#|-7--5--3--7--5---3-3-3-3-3-3--5-5-5-5-5-5-5-5----------------------------|
                    * * * * * *

[Chorus]

D#|-------------------------------------------------------------------------|
A#|-------------------------------------------------------------------------|
F#|------------------------7-6-7-9-11---------------------------------------|
C#|---5--7--9--7--5--7--9--x-x-x-x-x--5--7--9--7--5--4----------------------|
G#|---5--7--9--7--5--7--9--5-4-5-7-9--5--7--9--7--5--4----------------------|
D#|---3--5--7--5--3--5--7-------------3--5--7--5--3--2----------------------|


[Solo]           

D#|-10--10--9---7---10--10--9---7---10--10--12--14-17---14-17b-21br-21br-----|
A#|-13b-13b-12b-10b-13b-13b-12b-10b-13b-13b-15b------17----------------------|
F#|--------------------------------------------------------------------------|
C#|--------------------------------------------------------------------------|
G#|--------------------------------------------------------------------------|
D#|--------------------------------------------------------------------------|


[Bridge]

D#|-------------------------------------------------------------------------|
A#|-------------------------------------------------------------------------|
F#|-------------------------------------------------------------------------|
C#|---5--7--9--7--5--4------------------------------------------------------|
G#|---5--7--9--7--5--4------------------------------------------------------|
D#|---3--5--7--5--3--2------------------------------------------------------|


[Chorus]

D#|-------------------------------------------------------------------------|
A#|-------------------------------------------------------------------------|
F#|------------------------7-6-7-9-11---------------------------------------|
C#|---5--7--9--7--5--7--9--x-x-x-x-x--5--7--9--7--5--4----------------------|
G#|---5--7--9--7--5--7--9--5-4-5-7-9--5--7--9--7--5--4----------------------|
D#|---3--5--7--5--3--5--7-------------3--5--7--5--3--2----------------------|


[Outro Solo]

D#|--10--10--9---10--10--10--12--14-----------------------------------------|
A#|--13b-13b-12b-13b-13b-13b-15b-17b----------------------------------------|
F#|-------------------------------------------------------------------------| Repeat
C#|-------------------------------------------------------------------------|
G#|-------------------------------------------------------------------------|
D#|-------------------------------------------------------------------------|

D#|-10--10--9---------------------------------------------------------------|
A#|-13b-13b-12b-12~---------------------------------------------------------|
F#|-------------------------------------------------------------------------|
C#|-------------------------------------------------------------------------|
G#|-------------------------------------------------------------------------|
D#|-------------------------------------------------------------------------|



************************************
| x   Dead note
| b   Bend
| br  Bend release
| ~   Vibrato
| *   Palm mute
************************************
Suggest correction
Give kudos to tab author, rate the tab!
1 2 3 4 5
comments
print report bad tab
guest
You may want to rate the tab now too:
select rating
Wanna post a correction for this tab? Suggest correction