Oops, an error
Loading. Please wait.

Its Not Over Bass Tab

version 5
version 5

Whole song

Interactive

1,619 views 1 this week
no commentswrite comment
1 2 3 4 5
please rate
add to favorites
launch autoscroll
font size
0
reset
guitar tuner
Autoscroll
slow
fast
+/-
esc
set tempo
stop
Help us to improve Ultimate-Guitar.com Take our survey!
×
Author
Difficulty
novice
uned down 1/2 step(Eb,Ab,Db,Gb)

Notation legend:

         = slide up.
        / = slide down.
        ~ = let ring.
        x = mute.

Intro
 (0:00) rest for 3 measures

      i was blown   away        what could i
  G||---------------------------------------|
  D||---------------------------------------|
  A||---------------------------------------|
  E||---------------------------------------|

      say        it all seemed to   make sense
  G||---------------------------------------|
  D||---------------------------------------|
  A||---------------------------------------|
  E||---------------------------------------|

       you've taken away          every thing
  G||---------------------------------------|
  D||---------------------------------------|
  A||---------------------------------------|
  E||---------------------------------------|

        and  i can't deal      with that
  G||---------------------------------------|
  D||---------------------------------------|
  A||---------------------------------------|
  E||-------------------0/12----------------|

        I    try  to  see  the good  in life
  G||---------------------------------------|
  D||---------------------------------------|
  A||---------------------------------------|
  E||-7------------------7-----x5-------5---|

    but good things in life are hard to find
  G||---------------------------------------|
  D||---------------------------------------|
  A||---------------------------------------|
  E||-3--------------3------x5~------5--5---|

     we'll blow  it away         blow it away
  G||---------------------------------------|
  D||---------------------------------------|
  A||---------------------------------------|
  E||-7~-----------------7----x5------5-----|

        can we make   this  something   good
  G||---------------------------------------|
  D||---------------------------------------|
  A||---------------------------------------|
  E||-3---------3------x5-------5----5--2---|


 (0:27)
  G||---------------------------------------|
  D||---------------------------------------|
  A||--2-2-2-2--2-2-2-2--2-5-5-5--5-5-5-5/--|
  E||---------------------------------------|

     well I'll try to do it right  this time around
  G||----------------------------------------------|
  D||----------------------------------------------|
  A||-------------------/7-7-7-7---7-7-------------|
  E||/3-3-3-3--3-3-3-3-----------------9-----------|

(0:33)  let's   start    over
  G||---------------------------------------|
  D||---------------------------------------|
  A||---------------------------------------|
  E||----3------3----------3----x5-5--5-5---|

      I'll try to do it right  this time  around
  G||---------------------------------------|
  D||---------------------------------------|
  A||---------------------------------------|
  E||7-----7---7-------x-5----5---5--2------|

        Its   not    over
  G||---------------------------------------|
  D||---------------------------------------|
  A||---------------------------------------|
  E||3~-------3-------3------x5--5---5---5--|

     because a part of me is dead  and in  the ground
  G||------------------------------------------------|
  D||------------------------------------------------|
  A||------------------------------------------------|
  E||7-----7----7----------77\10-10-10-12-12h14--14--|

             this love        is     killing
  G||---------------------------------------|
  D||---------------------------------------|
  A||---------------------------------------|
  E||-3------3--------3---x5-------5----5-5-|

           me         but you're the only one
  G||---------------------------------------|
  D||---------------------------------------|
  A||---------------------------------------|
  E||-7-7--7---7-7----0-5-------5---5-2-0---|

         it's not over
  G||------------------------|
  D||------------------------|
  A||------------------------|
  E||---3---3---33--3----2~--|

(1:03) Taken all i  could   take   and i cannot
  G||---------------------------------------|
  D||---------------------------------------|
  A||---------------------------------------|
  E||-7------------------7-----x5-------5---|

      wait   were wasting  too  much time
  G||---------------------------------------|
  D||---------------------------------------|
  A||---------------------------------------|
  E||-3--------------3------x5~------5--5---|

         Being  strong           holding on
  G||---------------------------------------|
  D||---------------------------------------|
  A||---------------------------------------|
  E||-7------------------7-----x5-------5---|

               can't let  it  bring us  down
  G||---------------------------------------|
  D||---------------------------------------|
  A||---------------------------------------|
  E||-3--------------3------x5~------5--5---|

       My life  with you   means  everything
  G||---------------------------------------|
  D||---------------------------------------|
  A||---------------------------------------|
  E||-7~-------------------5~---------------|

        So i   wont give up   that easily
  G||---------------------------------------|
  D||---------------------------------------|
  A||---------------------------------------|
  E||--3~---------------------5~------------|

          I'll blow it away        blow it away
  G||------------------------------------------|
  D||------------------------------------------|
  A||------------------------------------------|
  E||--7~-------------------------5~-----------|

                can we make   this   something    good
  G||-------------------------------------------------|
  D||-------------------------------------------------|
  A||-------------------------------------------------|
  E||--3----------------------5-----------------------|

  (1:29)
  G||---------------------------------------|
  D||---------------------------------------|
  A||--2-2-2-2--2-2-2-2--2-5-5-5--5-5-5-5/--|
  E||---------------------------------------|

                     'cause it's all  misunderstood
  G||----------------------------------------------|
  D||----------------------------------------------|
  A||-------------------/7-7-7-7---7-7-------------|
  E||/3-3-3-3--3-3-3-3-----------------9-----------|


  G||---------------------------------------|
  D||---------------------------------------|
  A||--2-2-2-2--2-2-2-2--2-5-5-5--5-5-5-5/--|
  E||---------------------------------------|

        Well I'll try to do it right this time around
  G||----------------------------------------------|
  D||----------------------------------------------|
  A||-------------------/7-7-7-7---7-7-------------|
  E||/3-3-3-3--3-3-3-3-----------------9-----------|


(1:42)  let's   start    over
  G||---------------------------------------|
  D||---------------------------------------|
  A||---------------------------------------|
  E||----3------3----------3----x5-5--5-5---|

      I'll try to do it right  this time  around
  G||---------------------------------------|
  D||---------------------------------------|
  A||---------------------------------------|
  E||7-----7---7-------x-5----5---5--2------|

        Its   not    over
  G||---------------------------------------|
  D||---------------------------------------|
  A||---------------------------------------|
  E||3~-------3-------3------x5--5---5---5--|

     because a part of me is dead  and in  the ground
  G||------------------------------------------------|
  D||------------------------------------------------|
  A||------------------------------------------------|
  E||7-----7----7----------77\10-10-10-12-12h14--14--|

             this love        is     killing
  G||---------------------------------------|
  D||---------------------------------------|
  A||---------------------------------------|
  E||-3------3--------3---x5-------5----5-5-|

           me         but you're the only one
  G||---------------------------------------|
  D||---------------------------------------|
  A||---------------------------------------|
  E||-7-7--7---7-7----0-5-------5---5-2-0---|

         it's not over
  G||------------------------|
  D||------------------------|
  A||------------------------|
  E||---3---3---33--3----2~--|

(2:02)     It's    not    over
  G||-----------------------------------------------|
  D||-----------------------------------------------|
  A||-----------------------------------------------|
  E||-3------3------5//////////14--14-14--14--14-14-|

  G||------------------------------------------|
  D||------------------------------------------|
  A||---14141413--1313-------------------------|(13's and 14's)
  E||------------------14----------------------|

(2:07)
  G||---------------------------------------|
  D||---------------------------------------|
  A||---------------------------------------|
  E||--3-3-----3--3-3-3--0--5-----5--5------|

  G||------------------------------------------|
  D||------------------------------------------|
  A||-------------------------------4-5-4------|
  E||--7--7---7---7-7---7-0--5------------5----|

  G||------------------------------------------|
  D||------------------------------------------|
  A||------------------------------------------|
  E||--3---3----3--3-3-------5----5-5---5---5--|

              we can't   let this    get away
  G||------------------------------------------|
  D||------------------------------------------|
  A||----------------------------17-17/--------|
  E||-7--77--77-7//-19191919--19---------------|(19's)

(2:20)      let  it out    let it   out
  G||------------------------------------------|
  D||------------------------------------------|
  A||------------------------------------------|
  E||--3--3--3--3-3-3-3--0-5-5-----------------|

          Don't get caught up in  yourself
  G||----------------------------------------|
  D||-----------------------7----------------|
  A||--------------------------0-4-5---------|
  E||--7---7---7-7-7--0-5--------------------|

          Let  it  out
  G||-----------------------------|------------------|
  D||-----------------------------|------------------|
  A||-----------------------------|--7h9-9-7h9-9-9---|
  E||---3--3-3--3-0---2--2--2-2/7-|------------------|

 (2:31)  Let's  start over
  G||---------------------------------------|
  D||---------------------------------------|
  A||---------------------------------------|
  E||----3------3----------3----x5-5--5-5---|

      I'll try to do it right  this time  around
  G||---------------------------------------|
  D||---------------------------------------|
  A||---------------------------------------|
  E||7-----7---7-------x-5----5---5--2------|

        Its   not    over
  G||---------------------------------------|
  D||---------------------------------------|
  A||---------------------------------------|
  E||3~-------3-------3------x5--5---5---5--|

(2:41) because a part of me is dead  and in  the ground
   G||------------------------------------------|
   D||------------------------------------------|
   A||----------------------------5-------------|
   E||----7---7//----19-19--19------------------|

             this love        is     killing
  G||---------------------------------------|
  D||---------------------------------------|
  A||---------------------------------------|
  E||-3------3--------3---x5-------5----5-5-|

           me         but you're the only one
  G||---------------------------------------|
  D||---------------------------------------|
  A||---------------------------------------|
  E||-7-7--7---7-7----0-5-------5---5-2-0---|

(2:51)      it's not over
  G||--------------------------------------------|
  D||--------------------------------------------|
  A||--------------------------------------------|
  E||----3----3------3----3-0---2-2-2-2--2-2-2-0-|

(2:54)     let's  start over
  G||---------------------------------------|
  D||---------------------------------------|
  A||---------------------------------------|
  E||----3------3----------3----x5-5--5-5---|


  G||---------------------------------------|
  D||---------------------------------------|
  A||---------------------------------------|
  E||7-----7---7-------x-5----5---5--2------|

        Its   not    over
  G||---------------------------------------|
  D||---------------------------------------|
  A||---------------------------------------|
  E||3~-------3-------3------x5--5---5---5--|

     yeah  yeah part
  G||------------------------------------------------|
  D||------------------------------------------------|
  A||------------------------------------------------|
  E||7-----7----7----------77\10-10-10-12-12h14--14--|

             this love        is     killing
  G||---------------------------------------|
  D||---------------------------------------|
  A||---------------------------------------|
  E||-3------3--------3---x5-------5----5-5-|

           me         but you're the only one
  G||---------------------------------------|
  D||---------------------------------------|
  A||---------------------------------------|
  E||-7-7--7---7-7----0-5-------5---5-2-0---|

         it's not over
  G||------------------------|
  D||------------------------|
  A||------------------------|
  E||---3---3---33--3----2~--|

  G||------------------------------------------|
  D||------------------------------------------|
  A||------------------------------------------|
  E||--7~~~~~~~~~~~~~--------------------------|

this tabs is 100% perfect..try it now..
Suggest correction
Give kudos to tab author, rate the tab!
1 2 3 4 5
comments
print report bad tab
guest
You may want to rate the tab now too:
select rating
Please do not post tabs as comments. Select "correction" instead!