Oops, an error
Loading. Please wait.

Learn My Lesson Tab

4,395 views 1 this week
no commentswrite comment
1 2 3 4 5
please rate
add to favorites
launch autoscroll
font size
0
reset
how to read this tab
guitar tuner
Tab Pro tools
  • play this tab
  • loop segment
  • change instrument
  • show fretboard
  • metronome
×
Best way to learn
"Learn My Lesson"
Autoscroll
slow
fast
+/-
esc
set tempo
stop
Contributor
PTL

                   Daughtry – Learn my lesson

                     From Leave this town

By Sanjeev George, Basil George and Thomas George

Submitted to and for www.ultimate-guitar.com only ,the site for all your tab needs

Contact at SanjeevGeorge123@yahoo.co.in

copy and paste this tab in microsoft word courier new font
Please rate and comment

At least 3 guitars
Guitar 1-Acoustic Chords
Guitar 2-Arps and leads, and ending licks. separate guitar may be used for the arps alone)
Guitar 3-Rhythm and licks, chorus in the end


GUITAR 1 CHORDS
Verse 1:
 Am                         G
Tonight the sunset means so much
  Am                                  Gsus   G9
The one thing that you know you never touch
Am                          F
Like the feeling, the real thing
    C                    G
I reach out for the sweet dream
    Am                           G
But somehow the darkness wakes me up


Pre Chorus:
  Dm                              F
Well I felt this emptiness before)
                  C
But all the times that I've been broken 
          G                        
I still run right back for more

Chorus:
                    C 
You'd think that I'd learn my lesson by now
                F
You'd think that I'd somehow figure out
                Am
That if you strike that match
        G                 F
You've found a field of flames
                    C
You'd think that I'd learn the cost of love
               F
And paid that price long enough
                  Am              G            F
But still I drive myself right through the pain
Well it turns out
    C
I haven't learned a thing Oh yeah

SOLO 1:   Am   G
Verse 2(Same chords as verse 1)
Sometimes I think I'm better off
To turn out the lights and close up shop
Didn't give up the longing, believing
And belonging
Just hold down my head and take the lost

Chorus (same chords):
You'd think that I'd learn my lesson by now
You'd think that I'd somehow figure out
That if you strike that match
You've found a field of flames
You'd think that I'd learn the cost of love
And paid that price long enough
But still I drive myself right through the pain
Well it turns out
I haven't learned a thing

Solo 2: Am   F  Am  G  C

Last Chorus:
You'd think that I'd learn my lesson by now
You'd think that I'd somehow figure out
That if you strike that match
You've found a field of flames
You'd think that I'd learn the cost of love
And paid that price long enough
But still I drive myself right through the pain
Yeah, well it turns out

Outro:
I haven't learned a thing
I haven't learned a thing
I haven't learned, haven't learned
I haven't learned a thing
GUITAR 2
Intro 
e|---------------------------------------------------------------------------|
B|-----8-----8-----8-----8-----8---------8-----8-----8-----8-----8-----------|
G|-------5-----5-----5-----5-----5---5-----5-----5-----5-----5-----5---5-----|
D|---------7-----7-----7-----7-----7---------5-----5-----5-----5-----5-------|
A|---------------------------------------------------------------------------|
E|---------------------------------------------------------------------------|

Verses
e|---------------------------------------------------------------------------|
B|-----8-----8-----8-----8-----8---------8-----8-----8-----8-----8-----------|
G|-------5-----5-----5-----5-----5---5-----5-----5-----5-----5-----5---5-----|
D|---------7-----7-----7-----7-----7---------5-----5-----5-----5-----5-------|
A|---------------------------------------------------------------------------|
E|---------------------------------------------------------------------------|

e|--------------------------------------|
B|-----8-----8-----8-----8-----8--------|
G|-------5-----5-----5-----5-----5---5--|
D|---------7-----7-----7-----7-----7----|
A|--------------------------------------|
E|--------------------------------------|

e|-----8-----8-----8----7-----7-----7---|
B|-------8-----8-----8----8-----8-----8-|
G|---------7-----7----------7-----7-----|
D|--------------------------------------|
A|--------------------------------------|
E|--------------------------------------|
                                 ….Never touch

e|---------------------------------------------------------------------------|
B|-----8-----8-----8-----8-----8---------8-----8-----8-----8-----8-----------|
G|-------5-----5-----5-----5-----5---5-----5-----5-----5-----5-----5---5-----|
D|---------7-----7-----7-----7-----7---------5-----5-----5-----5-----5-------|
A|---------------------------------------------------------------------------|
E|---------------------------------------------------------------------------|

e|--------------------------------------|
B|-----8-----8-----8-----8-----8--------|
G|-------5-----5-----5-----5-----5---5--|
D|---------7-----7-----7-----7-----7----|
A|--------------------------------------|
E|--------------------------------------|

e|-----------------------------------------------------------|
B|-----8-----8-----8-----8-----8---------8--------8-----8----|
G|-------5-----5-----5-----5-----5---5-----5---5----5--------|
D|---------7-----7-----7-----7-----7---------5--------5------|
A|-----------------------------------------------------------|
E|-----------------------------------------------------------|




Pre chorus
e|-----5--------------------------|
B|-----6--------------------5-----|
G|-----7--------4---5---7---------|x 4 times
D|-----7----7-0---0---0---0-------|
A|-----5--------------------------|
E|-----5--------------------------|


Chorus 
e|--15-----------------------------|
B|-----13-13----13-15-13-13----13--|
G|-----------14-------------14-----|x 2 times
D|---------------------------------|
A|---------------------------------|
E|---------------------------------|

e|--------------------------------------------------------|  ----------|
B|--12b13r12b13r12b13r12b13r12b13r12b13r12b13r12b13r—12v--|  ----------|
G|--------------------------------------------------------|x2--12-12vv-|
D|--------------------------------------------------------|  ----------|
A|--------------------------------------------------------|  ----------|
E|--------------------------------------------------------|  ----------|

e|--15-----------------------------|
B|-----13-13----13-15-13-13----13--|
G|-----------14-------------14-----|x 2 times
D|---------------------------------|
A|---------------------------------|
E|---------------------------------|

e|--------------------------------------------------------|  
B|--12b13r12b13r12b13r12b13r12b13r12b13r12b13r12b13r—12v--|  
G|--------------------------------------------------------|
D|--------------------------------------------------------|  
A|--------------------------------------------------------|  
E|--------------------------------------------------------| 


e|-12b13r12b13r12b13r12b13r12b13r12b13r12b13r12b13r—-|----------|
B|---------------------------------------------------|----------|
G|---------------------------------------------------|--10vvvv--|
D|---------------------------------------------------|----------|
A|---------------------------------------------------|----------|
E|---------------------------------------------------|----------|
                                                 Yeah well it turns out!....

Slight variation just before solo 2(Yeah well it turns out!!!!)
e|------------------------------------------------------|
B|----8-----8-----8-----8-----8-----8-----8-----8-------|
G|----10b12-10b12-10b12-10b12-10b12-10b12-10b12-10b12---|
D|------------------------------------------------------|
A|------------------------------------------------------|
E|------------------------------------------------------|



Just before 2nd chorus
e|--------------15----------17----17b19vv----|
B|-----15-17-15----15-17-15----15------------|
G|--17---------------------------------------|
D|-------------------------------------------|
A|-------------------------------------------|
E|-------------------------------------------|


Solo 1
Guitar 2
e|-----------------------------------------------------------|
B|--17-17-17--15-15-15--13-13-13--10-10-10—10/12—12/13--13---|
G|-----------------------------------------------------------|
D|--14-14-14--12-12-12--10-10-10---7--7--7--7/9—--9/10--10---|
A|-----------------------------------------------------------|
E|-----------------------------------------------------------|

e|-----------------------------------------------------------|
B|--17-17-17--15-15-15--13-13-13--10-10-10—10-10\8—-8/10-10~-|
G|-----------------------------------------------------------|
D|--14-14-14--12-12-12--10-10-10---7--7--7--7--7\5—-5/7---7~-|
A|-----------------------------------------------------------|
E|-----------------------------------------------------------|

Solo 2
Guitar 2
e|-----------------------------------------------------------------------------|
B|----15b17---17r15-13-12b13r12-----------115b17-17-17-17-17r15--13-12b13r12---|
G|------------------------------12-14v-----------------------------------------|
D|-----------------------------------------------------------------------------|
A|-----------------------------------------------------------------------------|
E|-----------------------------------------------------------------------------|

e|------------------------------------------------------------------|
B|-------13---------------------------------------------------------|
G|-12-14----14p12----12b14vvvv-------7b9r7-5-7vvvvv-----5h7p5-4h5---|
D|----------------14------------------------------------------------|
A|------------------------------------------------------------------|
E|------------------------------------------------------------------|

e|-------------------------------------------------------------|
B|-------------------------------------------------------------|
G|-4h5p4h5p4—5h7p5h7p5-7h9p7h9p7-9h10p9h10p9-10h12p10h12p10----|
D|-------------------------------------------------------------|
A|-------------------------------------------------------------|
E|-------------------------------------------------------------|

e|-----------------------------------------------20vv---20b22-r20vv-----|
B|----------------------------------------------------------------------|
G|-12h14p12h14p12-14h16p14h16p14-16h17p16h17p16-------------------------|
D|----------------------------------------------------------------------|
A|----------------------------------------------------------------------|
E|----------------------------------------------------------------------|

Guitar 2 Licks played till the end during last chorus, in the outro
e|--15-----------15-----------12-----------12-------------|
B|-----13-15-13-----13-15-13-----13-15-13-----13-15-13----|
G|--------------------------------------------------------|
D|--------------------------------------------------------|
A|--------------------------------------------------------|
E|--------------------------------------------------------|

e|--12b13r12b13r12b13r12b13r12b13r12b13r12b13r12b13r--------------------------|
B|----------------------------------------------------------------------------|
G|---------------------------------------------------10-10-10-10-10vvvvvvvvv--|
D|----------------------------------------------------------------------------|
A|----------------------------------------------------------------------------|
E|----------------------------------------------------------------------------|

e|--------------------------------------------------------------|
B|--15b17-17r15-13-15b17r15-13vv--15b17-17r15-13-15b17r15-13vv--|
G|--------------------------------------------------------------|
D|--------------------------------------------------------------|
A|--------------------------------------------------------------|
E|--------------------------------------------------------------|


e|--15b17-15vv---15b17-15vv-------------------------------|
B|---------------------------13---------------------------|
G|--------------------------------12b14r12-12vvvvvvvvvv---|
D|--------------------------------------------------------|
A|--------------------------------------------------------|
E|--------------------------------------------------------|



GUITAR 3 PARTS

Plays all the chords of guitar 1 as power chords in the choruses,like
Chorus
e|---------------------------------------------|
B|---------------------------------------------|
G|---------------------------------------------|x2
D|--55555555-----------------------------------|
A|--33333333--33333333--7777--5555--33333333---|
E|------------11111111--5555--3333--11111111---|

e|--------------------|
B|--------------------|
G|--------------------|
D|------------5555----|
A|--33333333--3333----|
E|--11111111----------|


In solo 1
e|------------------|
B|------------------|
G|------------------|
D|------------------|
A|--77777777-3------|
E|--55555555-1------|



Guitar 3 licks During Verse 2
e|-------------------------|
B|-----------8------8v-----|
G|-------------------------|
D|----7-9-10---9-10--------|
A|-------------------------|
E|-------------------------|

e|------------------------------------|
B|------------------------------------|
G|--/14vvvvv-------------/12vvvvvvvv--|
D|------------------------------------|
A|------------------------------------|
E|------------------------------------|

Just before 2nd chorus
e|-------------------|
B|-------------------|
G|-------------------|
D|-------------------|
A|-------55555555----|
E|--/-\--33333333----|

Rhythm for solo 2
e|----------------------------------------------|
B|----------------------------------------------|
G|----------------------------------------------|
D|------------------------------------------5~--|
A|--77777777—3333333/5--77777777--55555555—-3~--|
E|--55555555—1111111/3--55555555--33333333------|


Played just after solo 2 and after the 1st 2 lines of the last chorus 
e|---------------------------------------|
B|---------------------------------------|
G|---------------------------------------|
D|---------------------------------------|
A|-//----7777--5555--33-33-33-33-3-xxx---|
E|-//----5555--3333--11-11-11-11-1-xxx---|

       And if you strike that match…..!

Outro
e|-----------------------------------------|
B|-----------------------------------------|
G|-----------------------------------------|
D|--55555555------------55555555-----------|
A|--33333333--33333333—-33333333-—33333~---|
E|------------11111111------------11111~---|
         Haven’t learnt a thing! Haven’t learnt a thing!!

| /  slide up
| \  slide down
| h  hammer-on
| p  pull-off
| ~  let ring
| +  harmonic
| x  Mute note
| v  vibrato
|// pick slide
comments
We did not receive enough feedback on this tab! Please rate:
print report bad tab
1 2 3 4 5
I want to post or [tab]
guest
You may want to rate the tab now too:
select rating
Please do not post tabs as comments. Select "correction" instead!