Oops, an error
Loading. Please wait.

Life After You Tab

version 1
version 1

Whole song

Interactive

55,937 views 33 this week
3 commentsread comments
1 2 3 4 5
excellent!
x 10
add to favorites
launch autoscroll
font size
0
reset
how to read this tab
guitar tuner
Tab Pro tools
  • play this tab
  • loop segment
  • change instrument
  • show fretboard
  • metronome
Autoscroll
slow
fast
+/-
esc
set tempo
stop
Contributor
PTL

             Life after you - Daughtry
                From leave this town

Tabbed by: Sanjeev George and Thomas George
Email:SanjeevGeorge123@yahoo.co.in

Tuning: Std

Guitar 1- rhythm and arps(Acoustic and electric but separate acoustic guitar can also be used)

Guitar 2-arps,rhythm and lead

Intro

Guitar 1 – Dm   Bb   F   C

Guitar 2
e|---------------------------------------------------------------|
B|-6\----1---3-----------------6\---1---3-------------6-----3----|
G|---------------2--------------------------2/5------------------|
D|---------0---------3----------------0--------------------------|
A|-----0-------0---0--------------0-------0----------------------|
E|---------------------------------------------------------------|

Verse 1

Guitar 1

   Dm             Bb                  F
Ten miles from town and I just broke down
               C                     Dm
Spittin' out smoke on the side of the road
  Dm           Bb                      F
I'm out here alone just tryin' to get home
                C                         G
To tell you I was wrong but you already know
 G             Bb
Believe me I won't stop at nothin'
  G                   Bb       c
To see you so I've started runnin'

Guitar 2 plays arps on the above chords


Chorus

Guitar 1
Bb5            F5          C5            D5
All that I'm after is a life full of laughter
Bb5              F5           C5
As long as I'm laughin' with you
                   Bb5              F5         C5        D5
I'm thinkin' that all that still matters is love ever after
  Bb5        F5             C5
After the life we've been through
          Bb5             F5       C5
'Cause I know there's no life after you

Guitar 2
e|--------------------------------------|
B|------------------/6-6-5--------------|
G|---3-------5---7----------------------|
D|---3---3---5---7----------------------|
A|---1---3---3---5----------------------|
E|-------1------------------------------|

e|--------------------------------------|
B|--------------------------------------|
G|--3-------5----------5---5------------|
D|--3---3---5------5h7---7--------------|
A|--1---3---3---------------------------|
E|------1-------------------------------|

e|--------------------------------------|
B|------------------/6-6-5--------------|
G|--3-------5---7-----------------------|
D|--3---3---5---7-----------------------|
A|--1---3---3---5-----------------------|
E|------1-------------------------------|

e|--------------------------------------|
B|---------------6-5--------------------|
G|--3-------5--------5-5/7v-------------|
D|--3---3---5---------------------------|
A|--1---3---3---------------------------|
E|------1-------------------------------|


Solo
Guitar 1- Dm   Bb   F   C
Guitar 2

e|---------------------------------------------------------------------------|
B|--------------13h15-13v---------------------------13h15-13v---13\----------|
G|--14v---12-14--------------12-14-17\10v-----12-14--------------------------|
D|---------------------------------------------------------------------------|
A|---------------------------------------------------------------------------|
E|---------------------------------------------------------------------------|

e|--12h13--12---------------------|
B|-------------13-13/15v----------|
G|--------------------------------|
D|--------------------------------|
A|--------------------------------|
E|--------------------------------|

Verse 2
Guitars same as verse 1

Last time we talked, the night that I walked
Burns like an iron in the back of my mind
I must've been high to say you and I
Weren't meant to be and just wastin' my time

Oh, why did I ever doubt you?
You know I would die here without you

Chorus repeats

Bridge
 
  F                             Bb
you and I, right or wrong, there's no other one
   C
After this time I spent alone
                            Dm
It's hard to believe that a man with sight could be so blind
  Bb                                F                  Dm
Thinkin   bout the better times, must've been outto my mind


So I'm runnin' back to tell you


Chorus with only arps of gtr 1

e|-------1------1------1-----8---------1-------1--------1-------------------|
B|-----1------1------1---------6-----1-------1--------1---1-----------------|
G|---3-----------------------------3------------------------0---------------|
D|----------3-------------0---------------3--------2------------------------|
A|-----------------3-----------------------------3--------------------------|
E|--------------------------------------------------------------------------|

Chorus till end

All that I'm after is a life full of laughter
Without you God knows what I'd do, yeah

All that I'm after is a life full of laughter
As long as I'm laughin' with you
I'm thinkin' 'bout all that still matters is love ever after
After the life we've been through, yeah
Know there's no life after you

Outro

Guitar 1
  Bb             F          C
Know there's no life after you
  Bb             F          C
Know there's no life after you
  Bb             F          C
Know there's no life after you
  Bb             F          C
Know there's no life after you
  Bb             F          C
Know there's no life after you
  Bb             F          C
Know there's no life after you
  Bb             F          C
Know there's no life after you yeah

Guitar 2

e|---13------------------------------------------|
B|--------13---13h15-----------------------------|
G|---------------------12---12h14---12v----------| 
D|-----------------------------------------------|
A|-----------------------------------------------|
E|-----------------------------------------------|

e|---13------------------------------------------|
B|--------13---13h15-----------------------------|
G|---------------------12---12h14---12v----------| 
D|-----------------------------------------------|
A|-----------------------------------------------|
E|-----------------------------------------------|

e|---13------------------------------------------|
B|--------13---13h15-----------------------------|
G|---------------------12---12h14---12v-----10v--| 
D|-----------------------------------------------|
A|-----------------------------------------------|
E|-----------------------------------------------|


| /  slide up
| \  slide down
| h  hammer-on
| p  pull-off
| v  vibrato
| +  harmonic
| x  Mute note
| ~  Let ring


Please rate 


comments
print report bad tab
3 comments total.
-1 reply
Drazorback123 wrote on February 3 2010, 05:47 pm

What's the strumming pattern?

0 reply
DontheRokr wrote on July 26 2010, 01:16 pm

There's a short guitar riff after the first verse that's missing...

0 reply
DontheRokr wrote on July 26 2010, 01:43 pm

Scratch that. Apparently I'm blind today and completely missed it lol

I want to post or [tab]
guest
You may want to rate the tab now too:
select rating
Please do not post tabs as comments. Select "correction" instead!