Oops, an error
Loading. Please wait.

Life After You Tab

version 2
version 2

Whole song

Interactive

2,339 views 1 this week
no commentswrite comment
1 2 3 4 5
please rate
add to favorites
launch autoscroll
font size
0
reset
how to read this tab
guitar tuner
Autoscroll
slow
fast
+/-
esc
set tempo
stop
Help us to improve Ultimate-Guitar.com Take our survey!
×
Author
Difficulty
Capo
intermediate
1st fret
Tabbed & Arranged by: Josh Daley

Tuning: E A D G B E (Standard) - Capo 1


Intro:

--0-0--0-0--0----0-0--0-0--0----|
--5-5--x-x--2----0-0--x-x--0----|
--6-4--x-1--4----1-x--x-1--4----|
--6-6--2-2--2----2-2--2-2--4----|
--4----4----0----2-2--4----2----|
-----------------0--------------|



Verse:

--0----0----0----0----|
--5----2----0----0----|
--6----4----1----4----|
--6----2----2----4----|
--4----0----2----2----|
------------0---------|



Pre Chorus:

--2----0----2----0-----|
--2----2----2----2--4--|
--3----4----3----4--4--|
--2----2----2----2--4--|
--4----0----4----0--2--|
--2---------2----------|



Chorus:

--0--0-----0--0--0--0----|
--2--0--4--5--2--0--0----|
--4--1--4--6--4--1--4----|
--2--2--4--6--2--2--4----|
--0--2--2--4--0--2--2----|
-----0-----------0-------|

--0--0-----0--0-----0----0-----|
--2--0--4--5--2--4--5----2--4--|
--4--1--4--6--4--4--6----4--4--|
--2--2--4--6--2--4--6----2--4--|
--0--2--2--4--0--2--4----0--2--|
-----0-------------------------|



Interlude:

--0----0----0----0---------|
--5----2----0----0----4----|
--6----4----1----4----4----|
--6----2----2----4----4----|
--4----0----2----2----2----|
------------0--------------|



Bridge:

--0----0----0----0-----|
--5----2----0----0--4--|
--6----4----1----4--4--|
--6----2----2----4--4--|
--4----0----2----2--2--|
------------0----------|

--0----0----0---------|
--5----2----0----4----|
--6----4----1----4----|
--6----2----2----4----|
--4----0----2----2----|
------------0---------|
                                     (crescendo)
------0-----0-----0---9-8-----0-----0-------0--|
----0-----0-----4---0-------0-----0-------0-0--|
--2-----------4-----------2-------------4-4-4--|    ~ Back to chorus ~
--------2-----------------------2-----4-4-4-4--|
--------------------------------------2-2-2-2--|
-----------------------------------------------|



Outro:

--0----0-----0--0-------|
--5----2--4--2--0--4----|
--6----4--4--4--1--4----|
--6----2--4--2--2--4----|
--4----0--2--0--2--2----|
----------------0-------|

--0--0-------0--0--0----0----------------|
--2--0--4----2--0--0----0----------------|
--4--1--4----4--1--4----x----------------|
--2--2--4----2--2--4----2----------------|
--0--2--2----0--2--2----2----------------|
-----0----------0-------0----------------|
                        Let Ring
Suggest correction
Give kudos to tab author, rate the tab!
1 2 3 4 5
comments
print report bad tab
guest
You may want to rate the tab now too:
select rating
Wanna post a correction for this tab? Suggest correction