Oops, an error
Loading. Please wait.

Open Up Your Eyes tab

8,353 views 1 this week
no commentswrite comment
1 2 3 4 5
2 more votes to show rating
add to favorites
×
Save as Personal and add changes to this tab that will be seen only by you. Learn more ›
×
You can save this tab as Personal to edit and correct it or add notes. All changes will be seen only by you. Learn more »
launch autoscroll
font size
0
reset
how to read this tab
guitar tuner
edit
Autoscroll
slow
fast
+/-
esc
set tempo
stop
    Daughtry -Open Up Your Eyes
                         From Leave this town

By Sanjeev George and Thomas George
Contact at SanjeevGeorge123@yahoo.co.in

Submitted to and for www.ultimate-guitar.com only, the site for all your tab needs.

Tuning:1/2 step down

3 guitars

1-acoustic chords
2-electric arps
3-electric rhythm,licks

Hope its right. Please rate.

Intro

Guitar 3 with effect
eb|------------------------------------------------|
Bb|------------------------------------------------|
Gb|----11v-/14v\13v\9v\8v----14v\13v\9v/11v--------|
Db|------------------------------------------------|
Ab|------------------------------------------------|
Eb|------------------------------------------------|

Guitar 2
eb|---------5-4~----------------------5-4~--------7--------------------|
Bb|------------------4---5--4-----------------4-5----5-4---------------|
Gb|------6---------4---4------4----6--------4--------------------------|
Db|----4-------------------------4-------------------------------------|
Ab|--------------------------------------------------------------------|
Eb|--------------------------------------------------------------------|


Verses
Guitar 1 plays chords

Guitar 2
eb|-----------4~----------------------5-4~--------7-----------------------------|
Bb|---------5--------4---5--4-----------------4-5----5-4------------------------|
Gb|------6---------4---4------4----6--------4-----------------------------------|
Db|----4-------------------------4----------------------------------------------|
Ab|-----------------------------------------------------------------------------|
Eb|-----------------------------------------------------------------------------|

eb|-----------4~----------------------5-4~--------7--------------------------|
Bb|---------5--------4---5--4-----------------4-5----5-4---------------------|
Gb|------6---------4---4------4----6--------4--------------------------------|
Db|----4-------------------------4-------------------------------------------|
Ab|--------------------------------------------------------------------------|
Eb|--------------------------------------------------------------------------|


eb|-----------4~----------------------5-4~--------7--------------------------|
Bb|---------5--------4---5--4-----------------4-5----5-4---------------------|
Gb|------6---------4---4------4----6--------4--------------------------------|
Db|----4-------------------------4-------------------------------------------|
Ab|--------------------------------------------------------------------------|
Eb|--------------------------------------------------------------------------|


eb|----------7-----------7~--------7~------------------|
Bb|------4-5---5-4-----5---------5---------------------|
Gb|----4-----------------------4-----------------------|
Db|------------------7---------------------------------|
Ab|----------------------------------------------------|
Eb|----------------------------------------------------|

eb|----7-------------------------------7----------7---------------------------|
Bb|----5------4---5--4------5------4-5----5--4----5------4---5--4-------------|
Gb|----6----4---4------4----6----4----------------6----4---4------4-----------|
Db|----4--------------------4---------------------4---------------------------|
Ab|----4--------------------4---------------------4---------------------------|
Eb|---------------------------------------------------------------------------|
       *                                          *
       Seems it's only been a moment………


eb|--------7------7----------7-----7----------7------7------------9~---------|
Bb|------5------5---5------5-----5---5------5------5---5--------7------------|
Gb|----------------------4-----4-------4----------------------8--------------|
Db|----7------7------7--------------------7------7-------7--9----------------|
Ab|--------------------------------------------------------------------------|
Eb|--------------------------------------------------------------------------|


Guitar 3 breaks in(“but as they lay…”)
eb|---------------------------------|
Bb|---------------------------------|
Gb|---------------------------------|
Db|----7~----9~----7~----9~---------|
Ab|----7~----9~----7~----9~---------|
Eb|----5~----7~----5~----7~---------|


Chorus

Guitar 1 plays chords
Guitar 2 and 3
eb|---------------------------------------|
Bb|---------------------------------------|
Gb|---6----9999--8888--4---6--------------|
Db|---6-------------------------7---------|
Ab|---4----7777--6666--2---4----7---------|
Eb|-----------------------------5---------|

eb|-------------------------------------------------|
Bb|-------------------------------------------------|
Gb|--6---8--9999-9999---8888---4444----6------------|
Db|--6---8-----------------------------6--7---------|
Ab|--4---6--7777-7777---6666---2222----4--7---------|
Eb|---------------------------------------5---------|

eb|----------------------------------------------------|
Bb|----------------------------------------------------|
Gb|--------------------------------------------4~------|
Db|--7777--7777--77---4---444---4---444---2----4~------|
Ab|--7777--7777--77---4---444---4---444---2----2~------|
Eb|--5555--5555--55---0h2-222---0h2-222---0------------|
       This Syncopation is different in the last chorus (Listen to song)

eb|---------------------------------------------------------------------------|
Bb|---------------------------------------------------------------------------|
Gb|------------------------------4~-------------------------------------------|
Db|-----4---444---4---444---2----4~-------4~----------------------------------|
Ab|-----4---444---4---444---2----2~-------4~----------------------------------|
Eb|-----0h2-222---0h2-222---0-------------2~----------------------------------|
      Open up your eyes!!!!             { Verse 2 begins(A single lifetime…….)}

Guitar 2 (open up your eyes!!!....)
eb|------------12----------|
Bb|-------9-10-------------|as reqd
Gb|----11------------------|
Db|------------------------|
Ab|------------------------|
Eb|------------------------|

Guitar 3 in verse 2
eb|----------------------------------|
Bb|----------------------------------|
Gb|----------------------------------|
Db|----9/11—14\13v--9-9/11v----------|
Ab|----------------------------------|
Eb|----------------------------------|

Guitar 2 in Chorus 2 little different from guitar 3
eb|-------------------------------------|
Bb|-------------------------------------|
Gb|---6----9999--8888--4---6------------|
Db|---6-------------------------7~------|
Ab|---6-------------------------7~------|
Eb|-----------------------------5~------|

eb|------------------------------------------------------|
Bb|------------------------------------------------------|
Gb|--6---8--999999--13-13-13-13-13-13--7-7-7-7-----------|
Db|--6---8----------------------------------------7------|
Ab|--4---6--777777--11-11-11-11-11-11--9-9-9-9----7------|
Eb|-----------------------------------------------5------|

eb|-----------------------|
Bb|-----------------------|
Gb|-----------------------|
Db|--7777--7777--77-------|
Ab|--7777--7777--77-------|
Eb|--5555--5555--55-------|


Bridge
Guitar 3
eb|-------------------------------------------------------------------------|
Bb|-------------------------------------------------------------------------|
Gb|-7777777777777777----------------------------------77777777--------6~----|
Db|-7777777777777777----444444444444----------2-------77777777----9---6~----|
Ab|-5555555555555555----444444444444-------------0----55555555----9---4~----|
Eb|---------------------222222222222----2-4-5------4--------------7---------|
                                                       (“no more tears to cry”)
Pick slide before next chorus
Chorus repeat

Outro
Guitar 2 with effect
eb|-------5---------------------------------------|
Bb|---------4~------4---5--4----------------------|
Gb|----6----------4---4------4--------------------|till it fades away
Db|--4--------------------------------------------|
Ab|-----------------------------------------------|
Eb|-----------------------------------------------|

Guitar 1 chords
Verse 1
F#m                      B
A single rose left to remember

 F#m                         B
As a single tear falls from her eye
    F#m                B
Another cold day in December
     Asus                B
A year from the day she said goodbye
  F#m                    B

Seems it's only been a moment
        F#m                     B
Since the angels took him from her arms
       F#m                                B
And she was left there holding on to their tomorrow
  Asus                     B
But as they laid him in the ground
  Asus                    B
Her heart would sing without a sound

Chorus

  C#m                                E  D#  B  A
For the first time you can open your eyes
    B
And see the world without your sorrow
          C#m
Where no one knows the pain you left behind
                  E                  F#m
And all the peace you could never find
  B
Is waiting there to hold and keep you
  A
Welcome to the first day of your life
  F#m                E    B
Just open up your eyes

Verse 2 (same as above)
A single lifetime lays behind her
As she draws her final breath
Just beyond the door he'll find her
Taking her hand she softly says

Chorus again
Bridge
                     D                      F#m
Just open up your eyes as I lay you down tonight
                          G#              D
Safe on the other side, no more tears to cry
   B
For the first time you can open your eyes……..

“Open up your eyes….open up your eyes…” till the end
      F#m     B

eb|---0-------0--------|
Bb|---0-------0--------|
Gb|---2-------4--------|
Db|---4-------4--------|
Ab|---4-------2--------|
Eb|--------------------|

| /  slide up
| \  slide down
| h  hammer-on
| p  pull-off
| ~  let ring
| +  harmonic
| x  Mute note
| v  vibrato
| *  vibrato with tremolo

            
            
Suggest correction
Creating personal tab
Creating personal tab
You can edit any tab online and save it as your Personal.

You can edit, replace or remove any tab part or add personal notes – all changes will be seen only by you.

Personal tabs can be accessed anytime from any device, even offline.
Learn more »
Give kudos to tab author, rate the tab!
1 2 3 4 5
comments
print report bad tab
guest
You may want to rate the tab now too:
select rating
Wanna post a correction for this tab? Suggest correction