Oops, an error
Loading. Please wait.

Over You Tab

version 1
version 1

Interactive

76,010 views 36 this week
5 commentsread comments
1 2 3 4 5
accurate
x 10
add to favorites
launch autoscroll
font size
0
reset
how to read this tab
guitar tuner
Autoscroll
slow
fast
+/-
esc
set tempo
stop
Help us to improve Ultimate-Guitar.com Take our survey!
×
Artist: Chris Daughtry
Title: Over You
Album: Daughtry

Tune 1/2 down

Verse:
eb|-0--------------------------------|
Bb|-0-------------5------------------|
Gb|-2------4------6------4------2----|
Db|-2-x8---4-x8---6-x4---4-x4---2-x8-|
Ab|-1------2------4------2------0----|
Eb|-0--------------------------------|

eb|-0-------------------------------------------|
Bb|-0-------------5-----------------------------|
Gb|-2------4------6------4-------------2------4-|
Db|-2-x8---4-x8---6-x4---4-x4---4------2-x4---4-|
Ab|-1------2------4------2------4-x8---0------2-|
Eb|-0---------------------------2---------------|

Chorus:
eb|-0--------------------------------|
Bb|-0-------------5------------------|
Gb|-2------4------6------4------2----|
Db|-2-x8---4-x8---6-x4---4-x4---2-x8-|    x2
Ab|-1------2------4------2------0----|
Eb|-0--------------------------------|

eb|-----------------|
Bb|-----------------|
Gb|-3------2------4-|
Db|-4------2-x4---4-|
Ab|-4-x8---0------2-|
Eb|-2---------------|

Post-Chorus:
Guitar 1:
eb|-----------------------|
Bb|-----------------------|
Gb|-9------7--------------|
Db|-9-x8---7-x8-----------|
Ab|-7------5--------------|
Eb|-----------------------|

Guitar 2:
eb|---------------------------------------|
Bb|-10-9---10-9---------------------------|
Gb|------9------9-11-13-12-11-9-11-9-10-9-|
Db|---------------------------------------|
Ab|---------------------------------------|
Eb|---------------------------------------|

Verse:
eb|-0--------------------------------|
Bb|-0-------------5------------------|
Gb|-2------4------6------4------2----|
Db|-2-x8---4-x8---6-x4---4-x4---2-x8-|
Ab|-1------2------4------2------0----|
Eb|-0--------------------------------|

eb|-0----------------------------------------------|
Bb|-0-------------5--------------------------------|
Gb|-2------4------6------4------3------2------4----|
Db|-2-x8---4-x8---6-x4---4-x4---4------2-x4---4-x2-|
Ab|-1------2------4------2------4-x8---0------2----|
Eb|-0---------------------------2------------------|

Chorus:
eb|-0--------------------------------|
Bb|-0-------------5------------------|
Gb|-2------4------6------4------2----|
Db|-2-x8---4-x8---6-x4---4-x4---2-x8-|    x2
Ab|-1------2------4------2------0----|
Eb|-0--------------------------------|

eb|-----------------|
Bb|-----------------|
Gb|-3------2------4-|
Db|-4------2-x4---4-|
Ab|-4-x8---0------2-|
Eb|-2---------------|

Bridge:
Guitar 1:
eb|-----------------------------------|
Bb|-----------------------------------|
Gb|-9------7------9-------------------|
Db|-9-x16--7-x16--9-x16---7------9----|
Ab|-7------5------7-------7-x8---9-x8-|
Eb|-----------------------5------7----|

Guitar 2:
eb|----------------------------------------|
Bb|-10-9---10-9----------------------------|
Gb|------9------9-11-13-12-12-16-14-12-11--|
Db|----------------------------------------|
Ab|----------------------------------------|
Eb|----------------------------------------|

eb|----------------------------------------------|
Bb|----17----17-17h18p17----17----17-17h18p17----|
Gb|-15----15-------------15-------------------13-|
Db|----------------------------------------------|
Ab|----------------------------------------------|
Eb|----------------------------------------------|

Chorus: 
eb|-0--------------------------------|
Bb|-0-------------5------------------|
Gb|-2------4------6------4------2----|
Db|-2-x8---4-x8---6-x4---4-x4---2-x8-|    x5
Ab|-1------2------4------2------0----|
Eb|-0--------------------------------|

eb|-----------------|
Bb|-----------------|
Gb|-3------2------4-|
Db|-4------2-x4---4-|
Ab|-4-x8---0------2-|
Eb|-2---------------|
Suggest correction
What's this?
You can suggest a correction to this tab. Community and Mods will review your correction and vote to approve or reject it.
comments
print report bad tab
5 comments total. Showing first comments.
0 reply
jwhalen 181 wrote on March 6 2007, 07:32 pm

very good, been waitin for a tab for this, not just chords... guitar 2 bridge is a little off, but its close enouugh to work, great job

0 reply
HendrixIzKing 14 wrote on April 8 2007, 07:51 pm

Pretty Good tab i think in most of the first measure u want an E chord 221 not 122 but other than that pretty good im also not sure if its supposed to b half step down but it sounds pretty good that way to that thanks good tab

0 reply
aidypie 147 wrote on June 6 2007, 07:49 pm

hey man, half step down for sure, and I agree with HendrixIzKing. its by far a 221 rather than a 122. gret tab tho. 5 stars!

guest
You may want to rate the tab now too:
select rating
Please do not post tabs as comments. Select "correction" instead!