Oops, an error
Loading. Please wait.

Over You Tab

version 1
version 1

Whole song

Interactive

10,515 views 21 this week
1 commentread comment
1 2 3 4 5
2 more votes to show rating
add to favorites
launch autoscroll
font size
0
reset
how to read this tab
guitar tuner
×
Best way to learn
"Over You"
Autoscroll
slow
fast
+/-
esc
set tempo
stop
Author
Heres the RIGHT sounding for the tab Over You. I learned this on my own n i was thinking 
those other tabs are hard and wrong so here is my right way what i do ok.

-- ELECTRIC GUITAR

D A U G H T R Y  -  O V E R  Y O U

****************************************************************

[[YOU STRUM ONTO THESE CHORDS]]

Now that its all said and done....

 11x  11x  5x   5x    11x
|-0----0----0----0----0------|
|-0----0----0----0----0------|
|-1----4----6----4----2------|
|-2----4----6----4----2------|
|-2----2----4----2----0------|
|----------------------------|


What u said when u left...

 11x  11x  5x   5x
|-0----0----0----0-----|
|-0----0----0----0-----|
|-1----4----6----4-----|
|-2----4----6----4-----|
|-2----2----4----2-----|
|----------------------|

[["U Strum fast onto these ones!"]]

I guess I let u get the best of me...
PRECHORUS:
  18x   6x  4x
|------------------------------------|
|------------------------------------|
|--3----2----4-----------------------|
|--4----2----4~----------------------|
|--4----0----2-----------------------|
|--2---------------------------------|

*******************************************************************
- - - - - - - - - - - - - - - - - - - - - - - - - - - - - - - - - -
[CHORUS]
Well I never saw it coming...
Im slowly getting closser..

|-0----0----0----0----0------|
|-0----0----0----0----0------|
|-1----4----6----4----2------| Repeat 2x
|-2----4----6----4----2------|
|-2----2----4----2----0------|
|-0--------------------------|

Cause the day i thought i never get through...

|------------------------------------|
|------------------------------------|
|--3----2----4-----------------------|
|--4----2----4~----------------------|
|--4----0----2-----------------------|
|--2---------------------------------|


- - - - - - - - - - - - - - - - - - - - - - - - - - - - - - - - - - -
**********************************************************************

[[This part is after the chorus.]]

|----------------------------|
|----------------------------|
|-1----5---7-----------------|
|-2----5---7-----------------|
|-2----3---5-----------------|
|----------------------------|

You took a hammer to these walls...


|-0----0----0----0----0------|
|-0----0----0----0----0------|
|-1----4----6----4----2------|
|-2----4----6----4----2------|
|-2----2----4----2----0------|
|----------------------------|


And when you slammed the front door shut


|-0----0----0----0-----|
|-0----0----0----0-----|
|-1----4----6----4-----|
|-2----4----6----4-----|
|-2----2----4----2-----|
|----------------------|


That you never were the best for me

|------------------------------------|
|------------------------------------|
|--3----2----4-----------------------|
|--4----2----4~----------------------|
|--4----0----2-----------------------|
|--2---------------------------------|

BACK TO CHORUS!!

[SOLO PART}i dont know the solo sorry.

|----------------------------|
|----------------------------|
|-1----5---7-----------------|
|-2----5---7-----------------|  repeat 2x
|-2----3---5-----------------|
|----------------------------|


well i never saw it coming,
|-0----0----0----0----|
|-0----0----0----0----|
|-1----4----6----4----|
|-2----4----6----4----|
|-2----2----4----2----|
|---------------------|

MORE than u more than u know!
|---------------------|
|---------------------|
|-4--4----------------|
|-4--4----------------|
|-2--2----------------|
|---------------------|

Well I never saw it coming...
Im slowly getting closser..

|-0----0----0----0----0------|
|-0----0----0----0----0------|
|-1----4----6----4----2------| Repeat 2x
|-2----4----6----4----2------|
|-2----2----4----2----0------|
|-0--------------------------|


{WHOA WHOA WHOA ....]

|-0----0----0----0----0------|
|-0----0----0----0----0------|
|-1----4----6----4----2------| Repeat 2x
|-2----4----6----4----2------|
|-2----2----4----2----0------|
|-0--------------------------|
'


cause the day i thought i never get through.
I got OVER YOU
|------------------------------------|
|------------------------------------|
|--3----2----4-----------------------|
|--4----2----4~----------------------|
|--4----0----2-----------------------|
|--2---------------------------------|


and that it and i made couple of mistakes liek how to strum n then but its all right if 
should get what i mean like everyhitng is right n use the same chords n try them n 
to the song its right and please RATE ME!
Suggest correction
Give kudos to tab author, rate the tab!
1 2 3 4 5
comments
print report bad tab
1 comment total.
0 reply
sodaraja 30 Apr 04, 2008 06:06 PM

EDIT: srry, i had a typo on the chorus, i didnt know how to edit so there's another one, ver 4, or just look at this

eb--------------
bb--------------
gb-9--8--6--4--7
db-9--9--6--4--6
ab-7--9--4--2--6
eb----7--------5

guest
You may want to rate the tab now too:
select rating
Wanna post a correction for this tab? Suggest correction