Oops, an error
Loading. Please wait.

Renegade ukulele

67 views 1 this week
no commentswrite comment
1 2 3 4 5
3 more votes to show rating
add to favorites
×
Save as Personal and add changes to this tab that will be seen only by you. Learn more ›
×
You can save this tab as Personal to edit and correct it or add notes. All changes will be seen only by you. Learn more »
launch autoscroll
font size
0
reset
transpose
0
reset
display chords
guitar tuner
edit
Autoscroll
slow
fast
+/-
esc
set tempo
stop
Difficulty
intermediate
Strumming
There is no strumming pattern for this song yet. and get +5 IQ
-------------------------------------------------------------------------------
                             Renegade - Daughtry
-------------------------------------------------------------------------------
Tabbed by: firebowl99

Tuning: Dropped D (D-A-D-G-B-E)

Intro 
e|-------------------------------------------------------------------|
B|-------------------------------------------------------------------|
G|-----10------10------10------10------10-----10------10-------------|
D|-----10------10------10------10------10-----10------10-------------|
A|-------------------------------------------------------------------|
D|-0-0---0-0-0---0-0-0---0-0-0----0-0-0--0-0-0--0-0-0---9b-----------|
pm - -   - - -   - - -   - - -    - - -  - - -  - - -

e|-------------------------------------------------------------------|
B|-------------------------------------------------------------------|
G|-----10------10------10------10------10-----10------10-------------|
D|-----10------10------10------10------10-----10------10-------------|
A|-------------------------------------------------------------------|
D|-0-0---0-0-0---0-0-0---0-0-0----0-0-0--0-0-0--0-0-0---9b-----------|
pm - -   - - -   - - -   - - -    - - -  - - -  - - -

e|-----------------------------------|
B|-----------------------------------|
G|-----------------------------------|
D|-----------------------------------|
A|-------------------------2-2-3-3-5-|
D|-3-3-2-2-3-3-4-4-5-5-0-0-----------|


Pre-Verse 1
e|-------------------------------------------------------------------|
B|-------------------------------------------------------------------|
G|-----10------10------10------10------10-----10------10-----10------|
D|-----10------10------10------10------10-----10------10-----10------|
A|-------------------------------------------------------------------|
D|-0-0---0-0-0---0-0-0---0-0-0----0-0-0--0-0-0--0-0-0---0-0-0--------|
pm - -   - - -   - - -   - - -    - - -  - - -  - - -   - - -

e|--------------------------------------------------------------------|
B|--------------------------------------------------------------------|
G|------10------10------10------10------10-----10------10-----10------|
D|------10------10------10------10------10-----10------10-----10------|
A|--------------------------------------------------------------------|
D|-0-0-0--0-0-0---0-0-0---0-0-0----0-0-0--0-0-0--0-0-0---0-0-0--------|
pm - - -  - - -   - - -   - - -    - - -  - - -  - - -   - - - 


Verse 1
e|--------------------------------------------------------------------|
B|--------------------------------------------------------------------|
G|------10------10------10------10------10-----10------10-----10------|
D|------10------10------10------10------10-----10------10-----10------|
A|--------------------------------------------------------------------|
D|-0-0-0--0-0-0---0-0-0---0-0-0----0-0-0--0-0-0--0-0-0---0-0-0--------|
pm - - -  - - -   - - -   - - -    - - -  - - -  - - -   - - - 

e|--------------------------------------------------------------------|
B|--------------------------------------------------------------------|
G|------10------10------10------10------10-----10------10-----10------|
D|------10------10------10------10------10-----10------10-----10------|
A|--------------------------------------------------------------------|
D|-0-0-0--0-0-0---0-0-0---0-0-0----0-0-0--0-0-0--0-0-0---0-0-0--------|
pm - - -  - - -   - - -   - - -    - - -  - - -  - - -   - - - 


Pre- Chorus 1
e|---------------------------------------------------------------------------|
B|---------------------------------------------------------------------------|
G|-3-------------------------------------------------------------------------|
D|-3-------------------------------------------------------------------------|
A|-1-------------------------------------------------------------------------|
D|---------------------------------------------------------------------------|


Chorus 1
e|----------------------------------------|
B|----------------------------------------|
G|-7-7-7-7-7-7-7-7-7-7-7-7-7-7-7-7--------|
D|-7-7-7-7-7-7-7-7-7-7-7-7-7-7-7-7--------|
A|-5-5-5-5-5-5-5-5-5-5-5-5-5-5-5-5--------|
D|-0-0-0-0-0-0-0-0-0-0-0-0-0-0-0-0--------|

e|----------------------------------------|
B|----------------------------------------|
G|----------------------------------------|
D|-3-3-3-3-3-3-3-3-3-3-3-3-3-3-3-3--------|
A|-3-3-3-3-3-3-3-3-3-3-3-3-3-3-3-3--------|
D|-3-3-3-3-3-3-3-3-3-3-3-3-3-3-3-3--------|

e|----------------------------------------|
B|----------------------------------------|
G|----------------------------------------|
D|-5-5-5-5-5-5-5-5-5-5-5-5-5-5-5-5--------|
A|-5-5-5-5-5-5-5-5-5-5-5-5-5-5-5-5--------|
D|-5-5-5-5-5-5-5-5-5-5-5-5-5-5-5-5--------|

e|----------------------------------------|
B|----------------------------------------|
G|----------------------------------------|
D|-3-3-3-3-3-3-3-3-3-3-3-3-3-3-3-3--------|
A|-3-3-3-3-3-3-3-3-3-3-3-3-3-3-3-3--------|
D|-3-3-3-3-3-3-3-3-3-3-3-3-3-3-3-3--------|

e|----------------------------------------|
B|----------------------------------------|
G|-7-7-7-7-7-7-7-7-7-7-7-7-7-7-7-7--------|
D|-7-7-7-7-7-7-7-7-7-7-7-7-7-7-7-7--------|
A|-5-5-5-5-5-5-5-5-5-5-5-5-5-5-5-5--------|
D|-0-0-0-0-0-0-0-0-0-0-0-0-0-0-0-0--------|

e|----------------------------------------|
B|----------------------------------------|
G|----------------------------------------|
D|-3-3-3-3-3-3-3-3-3-3-3-3-3-3-3-3--------|
A|-3-3-3-3-3-3-3-3-3-3-3-3-3-3-3-3--------|
D|-3-3-3-3-3-3-3-3-3-3-3-3-3-3-3-3--------|

e|----------------------------------------|
B|----------------------------------------|
G|----------------------------------------|
D|-5-5-5-5-5-5-5-5-5-5-5-5-5-5-5-5--------|
A|-5-5-5-5-5-5-5-5-5-5-5-5-5-5-5-5--------|
D|-5-5-5-5-5-5-5-5-5-5-5-5-5-5-5-5--------|

e|-------------------|
B|-------------------|
G|-3-3-3-3-3-3-3-3-5-|
D|-3-3-3-3-3-3-3-3-5-|
A|-1-1-1-1-1-1-1-1-3-|
D|-------------------|


Pre-Verse 2
e|-----------------------------------------------------------------------------|
B|-----------------------------------------------------------------------------|
G|-----10------10------10------10------10-----10------10-----10-----10------10-|
D|-----10------10------10------10------10-----10------10-----10-----10------10-|
A|-----------------------------------------------------------------------------|
D|-0-0---0-0-0---0-0-0---0-0-0----0-0-0--0-0-0--0-0-0---0-0-0--0-0-0--0-0-0----|
pm - -   - - -   - - -   - - -    - - -  - - -  - - -   - - -

e|-----------------------------------------------------------------------------|
B|-----------------------------------------------------------------------------|
G|-----10------10------10------10------10-----10------10-----10-----10------10-|
D|-----10------10------10------10------10-----10------10-----10-----10------10-|
A|-----------------------------------------------------------------------------|
D|-0-0---0-0-0---0-0-0---0-0-0----0-0-0--0-0-0--0-0-0---0-0-0--0-0-0--0-0-0----|
pm - -   - - -   - - -   - - -    - - -  - - -  - - -   - - -


Verse 2
e|--------------------------------------------------------------------|
B|--------------------------------------------------------------------|
G|------10------10------10------10------10-----10------10-----10------|
D|------10------10------10------10------10-----10------10-----10------|
A|--------------------------------------------------------------------|
D|-0-0-0--0-0-0---0-0-0---0-0-0----0-0-0--0-0-0--0-0-0---0-0-0--------|
pm - - -  - - -   - - -   - - -    - - -  - - -  - - -   - - - 

e|--------------------------------------------------------------------|
B|--------------------------------------------------------------------|
G|------10------10------10------10------10-----10------10-----10------|
D|------10------10------10------10------10-----10------10-----10------|
A|--------------------------------------------------------------------|
D|-0-0-0--0-0-0---0-0-0---0-0-0----0-0-0--0-0-0--0-0-0---0-0-0--------|
pm - - -  - - -   - - -   - - -    - - -  - - -  - - -   - - - 


Pre- Chorus 2
e|---------------------------------------------------------------------------|
B|---------------------------------------------------------------------------|
G|-3-------------------------------------------------------------------------|
D|-3-------------------------------------------------------------------------|
A|-1-------------------------------------------------------------------------|
D|---------------------------------------------------------------------------|

e|---------------------------------------------------------------------------|
B|---------------------------------------------------------------------------|
G|-3-------------------------------------------------------------------------|
D|-3-------------------------------------------------------------------------|
A|-1-------------------------------------------------------------------------|
D|---------------------------------------------------------------------------|


Chorus 2
e|----------------------------------------|
B|----------------------------------------|
G|-7-7-7-7-7-7-7-7-7-7-7-7-7-7-7-7--------|
D|-7-7-7-7-7-7-7-7-7-7-7-7-7-7-7-7--------|
A|-5-5-5-5-5-5-5-5-5-5-5-5-5-5-5-5--------|
D|-0-0-0-0-0-0-0-0-0-0-0-0-0-0-0-0--------|

e|----------------------------------------|
B|----------------------------------------|
G|----------------------------------------|
D|-3-3-3-3-3-3-3-3-3-3-3-3-3-3-3-3--------|
A|-3-3-3-3-3-3-3-3-3-3-3-3-3-3-3-3--------|
D|-3-3-3-3-3-3-3-3-3-3-3-3-3-3-3-3--------|

e|----------------------------------------|
B|----------------------------------------|
G|----------------------------------------|
D|-5-5-5-5-5-5-5-5-5-5-5-5-5-5-5-5--------|
A|-5-5-5-5-5-5-5-5-5-5-5-5-5-5-5-5--------|
D|-5-5-5-5-5-5-5-5-5-5-5-5-5-5-5-5--------|

e|----------------------------------------|
B|----------------------------------------|
G|----------------------------------------|
D|-3-3-3-3-3-3-3-3-3-3-3-3-3-3-3-3--------|
A|-3-3-3-3-3-3-3-3-3-3-3-3-3-3-3-3--------|
D|-3-3-3-3-3-3-3-3-3-3-3-3-3-3-3-3--------|

e|----------------------------------------|
B|----------------------------------------|
G|-7-7-7-7-7-7-7-7-7-7-7-7-7-7-7-7--------|
D|-7-7-7-7-7-7-7-7-7-7-7-7-7-7-7-7--------|
A|-5-5-5-5-5-5-5-5-5-5-5-5-5-5-5-5--------|
D|-0-0-0-0-0-0-0-0-0-0-0-0-0-0-0-0--------|

e|----------------------------------------|
B|----------------------------------------|
G|----------------------------------------|
D|-3-3-3-3-3-3-3-3-3-3-3-3-3-3-3-3--------|
A|-3-3-3-3-3-3-3-3-3-3-3-3-3-3-3-3--------|
D|-3-3-3-3-3-3-3-3-3-3-3-3-3-3-3-3--------|

e|----------------------------------------|
B|----------------------------------------|
G|----------------------------------------|
D|-5-5-5-5-5-5-5-5-5-5-5-5-5-5-5-5--------|
A|-5-5-5-5-5-5-5-5-5-5-5-5-5-5-5-5--------|
D|-5-5-5-5-5-5-5-5-5-5-5-5-5-5-5-5--------|

e|--------------------------------|
B|--------------------------------|
G|-3-3-3-3-3-3-3-3-5-5-5-5-5-5-5-5|
D|-3-3-3-3-3-3-3-3-5-5-5-5-5-5-5-5|
A|-1-1-1-1-1-1-1-1-3-3-3-3-3-3-3-3|
D|--------------------------------|


Interlude
e|-------------------------------------------------------------------|
B|-------------------------------------------------------------------|
G|-----10------10------10------10------10-----10------10-----10------|
D|-----10------10------10------10------10-----10------10-----10------|
A|-------------------------------------------------------------------|
D|-0-0---0-0-0---0-0-0---0-0-0----0-0-0--0-0-0--0-0-0---0-0-0--------|
pm - -   - - -   - - -   - - -    - - -  - - -  - - -   - - -

e|-------------------------------------------------------------------|
B|-------------------------------------------------------------------|
G|------10------10------10------10------10-----10------10-----10-----|
D|------10------10------10------10------10-----10------10-----10-----|
A|-------------------------------------------------------------------|
D|-0-0-0--0-0-0---0-0-0---0-0-0----0-0-0--0-0-0--0-0-0---0-0-0-------|
pm - - -  - - -   - - -   - - -    - - -  - - -  - - -   - - - 


e|-------------------------------------------------------------------|
B|-------------------------------------------------------------------|
G|------10------10------10------10------10-----10------10-----10-----|
D|------10------10------10------10------10-----10------10-----10-----|
A|-------------------------------------------------------------------|
D|-0-0-0--0-0-0---0-0-0---0-0-0----0-0-0--0-0-0--0-0-0---0-0-0-------|
pm - - -  - - -   - - -   - - -    - - -  - - -  - - -   - - - 

e|-------------------------------------------------------------------|
B|-------------------------------------------------------------------|
G|------10------10------10------10------10-----10------10-----10-----|
D|------10------10------10------10------10-----10------10-----10-----|
A|-------------------------------------------------------------------|
D|-0-0-0--0-0-0---0-0-0---0-0-0----0-0-0--0-0-0--0-0-0---0-0-0-------|
pm - - -  - - -   - - -   - - -    - - -  - - -  - - -   - - -


Bridge 
e|---------------------|
B|---------------------|
G|---------------------|
D|-0-----3-----5-----7-|
A|-0-----3-----5-----7-|
D|-0-----3-----5-----7-|

e|---------------------|
B|---------------------|
G|---------------------|
D|-0-----3-----5-----7-|
A|-0-----3-----5-----7-|
D|-0-----3-----5-----7-|

e|---------------------|
B|---------------------|
G|---------------------|
D|-0-----3-----5-----7-|
A|-0-----3-----5-----7-|
D|-0-----3-----5-----7-|

e|-----------------------------------|
B|-----------------------------------|
G|-----------------------------------|
D|-----------------------------------|
A|-------------------------2-2-3-3-5-|
D|-3-3-2-2-3-3-4-4-5-5-0-0-----------|


Chorus 3
e|----------------------------------------|
B|----------------------------------------|
G|-7-7-7-7-7-7-7-7-7-7-7-7-7-7-7-7--------|
D|-7-7-7-7-7-7-7-7-7-7-7-7-7-7-7-7--------|
A|-5-5-5-5-5-5-5-5-5-5-5-5-5-5-5-5--------|
D|-0-0-0-0-0-0-0-0-0-0-0-0-0-0-0-0--------|

e|----------------------------------------|
B|----------------------------------------|
G|----------------------------------------|
D|-3-3-3-3-3-3-3-3-3-3-3-3-3-3-3-3--------|
A|-3-3-3-3-3-3-3-3-3-3-3-3-3-3-3-3--------|
D|-3-3-3-3-3-3-3-3-3-3-3-3-3-3-3-3--------|

e|----------------------------------------|
B|----------------------------------------|
G|----------------------------------------|
D|-5-5-5-5-5-5-5-5-5-5-5-5-5-5-5-5--------|
A|-5-5-5-5-5-5-5-5-5-5-5-5-5-5-5-5--------|
D|-5-5-5-5-5-5-5-5-5-5-5-5-5-5-5-5--------|

e|----------------------------------------|
B|----------------------------------------|
G|----------------------------------------|
D|-3-3-3-3-3-3-3-3-3-3-3-3-3-3-3-3--------|
A|-3-3-3-3-3-3-3-3-3-3-3-3-3-3-3-3--------|
D|-3-3-3-3-3-3-3-3-3-3-3-3-3-3-3-3--------|

e|----------------------------------------|
B|----------------------------------------|
G|-7-7-7-7-7-7-7-7-7-7-7-7-7-7-7-7--------|
D|-7-7-7-7-7-7-7-7-7-7-7-7-7-7-7-7--------|
A|-5-5-5-5-5-5-5-5-5-5-5-5-5-5-5-5--------|
D|-0-0-0-0-0-0-0-0-0-0-0-0-0-0-0-0--------|

e|----------------------------------------|
B|----------------------------------------|
G|----------------------------------------|
D|-3-3-3-3-3-3-3-3-3-3-3-3-3-3-3-3--------|
A|-3-3-3-3-3-3-3-3-3-3-3-3-3-3-3-3--------|
D|-3-3-3-3-3-3-3-3-3-3-3-3-3-3-3-3--------|

e|----------------------------------------|
B|----------------------------------------|
G|----------------------------------------|
D|-5-5-5-5-5-5-5-5-5-5-5-5-5-5-5-5--------|
A|-5-5-5-5-5-5-5-5-5-5-5-5-5-5-5-5--------|
D|-5-5-5-5-5-5-5-5-5-5-5-5-5-5-5-5--------|

e|--------------------------------|
B|--------------------------------|
G|-3-3-3-3-3-3-3-3-5-5-5-5-5-5-5-5|
D|-3-3-3-3-3-3-3-3-5-5-5-5-5-5-5-5|
A|-1-1-1-1-1-1-1-1-3-3-3-3-3-3-3-3|
D|--------------------------------|


Outro
e|----------------------------------------|
B|----------------------------------------|
G|-7-7-7-7-7-7-7-7-7-7-7-7-7-7-7-7--------|
D|-7-7-7-7-7-7-7-7-7-7-7-7-7-7-7-7--------|
A|-5-5-5-5-5-5-5-5-5-5-5-5-5-5-5-5--------|
D|-0-0-0-0-0-0-0-0-0-0-0-0-0-0-0-0--------|

e|----------------------------------------|
B|----------------------------------------|
G|----------------------------------------|
D|-3-3-3-3-3-3-3-3-3-3-3-3-3-3-3-3--------|
A|-3-3-3-3-3-3-3-3-3-3-3-3-3-3-3-3--------|
D|-3-3-3-3-3-3-3-3-3-3-3-3-3-3-3-3--------|

e|----------------------------------------|
B|----------------------------------------|
G|----------------------------------------|
D|-5-5-5-5-5-5-5-5-5-5-5-5-5-5-5-5--------|
A|-5-5-5-5-5-5-5-5-5-5-5-5-5-5-5-5--------|
D|-5-5-5-5-5-5-5-5-5-5-5-5-5-5-5-5--------|

e|-------------------|
B|-------------------|
G|-3-3-3-3-3-3-3-3-5-|
D|-3-3-3-3-3-3-3-3-5-|
A|-1-1-1-1-1-1-1-1-3-|
D|-------------------|


************************************

| /   slide up
| \   slide down
| h   hammer-on
| p   pull-off
| ~   vibrato
| +   harmonic
| x   Mute note
| b   Bend
| pb  Pre-bend
| br  Bend release
| pbr Pre-bend release
| brb Bend release bend
| pm  Palm mute

************************************

            
            
Suggest correction
Creating personal tab
Creating personal tab
You can edit any tab online and save it as your Personal.

You can edit, replace or remove any tab part or add personal notes – all changes will be seen only by you.

Personal tabs can be accessed anytime from any device, even offline.
Learn more »
Give kudos to tab author, rate the tab!
1 2 3 4 5
comments
print report bad tab
guest
Wanna post a correction for this tab? Suggest correction