Oops, an error
Loading. Please wait.

Tennessee Line tab

version 2
version 2

Whole song

329 views 1 this week
no commentswrite comment
1 2 3 4 5
3 more votes to show rating
add to favorites
×
Save as Personal and add changes to this tab that will be seen only by you. Learn more ›
×
You can save this tab as Personal to edit and correct it or add notes. All changes will be seen only by you. Learn more »
launch autoscroll
font size
0
reset
how to read this tab
guitar tuner
edit
Autoscroll
slow
fast
+/-
esc
set tempo
stop
Tabbed & Arranged by: Josh Daley

Tuning: E A D G B E (Standard)

Guitar 1: Tablature (Acoustic) - Capo 1
Guitar 2: Tablature (Acoustic) - Capo 6
Guitar 3: Tablature (Acoustic) - Capo 1

Note: > Even though the song is in 6/8, I have still used 4
        dashes for each bar with the rhythm guitars.
      > Lines down lead guitar tablature denotes a bar change.

Intro:

   Guitar 1:

   ---------------3-----------------------3\5/3^0----|
   ----------1----------1-----------1-----1-------1--|
   --0^2--2-----2----2------0^2--2-----2-------------|
   -(3)--------------------(3)-----------------------|
   -(3)--------------------(3)-----------------------|
   --------------------------------------------------|


   Guitar 2:

   --------------------------------------------------|
   ----------------3----------------------3\5/3^0----|
   ----------0-----------0----------0-------------0--|
   --0^2--2-----2-----2-----0^2--2-----2-------------|
   -(3)--------------------(3)-----------------------|
   --------------------------------------------------|


1st Verse & Pre-chorus:


   Guitar 1:

   --0----0----0----0----0----0----0----3----|
   --1----1----1----1----1----1----1----3----|
   --0^2--2----2----2----2----2----0----0----|
   --0^2--3----2----3----2----3----2----0----|
   --0----3----0----3----0----3----3----2----|
   -------------------------------------3----|

   --0----0----0----0----0----0----0----3----|
   --1----1----1----1----1----1----1----3----|
   --2----2----2----2----2----2----0----0----|
   --2----3----2----3----2----3----2----0----|
   --0----3----0----3----0----3----3----3----|
   -------------------------------------3----|

   --0--0--0--3--|
   --1--1--1--3--|
   --2--0--0--0--|
   --2--x--2--0--|
   --0--2--3--2--|
   -----------3--|

   Guitar 2:

   --3----3----3----3----3----3----3----2----|
   --3----3----3----3----3----3----3----3----|
   --0----0----0----0----0----0----0----2----|
   --0^2--2----2----2----2----2----0----0----|
   --0^2--3----2----3----2----3----2---------|
   --0---------0---------0---------3---------|

   --3----3----3----3----3----3----3----2----|
   --3----3----3----3----3----3----3----3----|
   --0----0----0----0----0----0----0----2----|
   --2----2----2----2----2----2----0----0----|
   --2----3----2----3----2----3----2---------|
   --0---------0---------0---------3---------|

   --3--3--3--2--|
   --3--3--3--3--|
   --0--0--0--2--|
   --2--2--0--0--|
   --2--x--2-----|
   --0--2--3-----|

   Guitar 3:

   -----------|---|--|--|--|--|--|-----------------|----|--|--|---3/5\3^0---|-----------|---|--|
   ---------1-|---|--|--|--|--|--|---3^5-3^5^3-----|----|--|--|-----------1-|---------1-|---|--|
   0^2----2---|---|--|--|--|--|--|-------------5^4-|0^2-|--|--|-------------|0^2~~--2---|---|--|
   -----2-----|3~~|--|--|--|--|--|-----------------|----|--|--|-------------|-----2-----|3~~|--|
   -----------|---|--|--|--|--|--|-----------------|----|--|--|-------------|-----------|---|--|
   -----------|---|--|--|--|--|--|-----------------|----|--|--|-------------|-----------|---|--|

   -----------------|-------|------|
   ---3^5-3^5^3-----|-------|------|
   -------------5^4-|0^2----|------|
   -----------------|-------|---5--|
   -----------------|----2--|3-----|
   -----------------|-------|------|





Chorus:


   Guitar 1:

   --0----0----0----0----0----0----0----0----|
   --1----1----1----1----1----1----1----1----|
   --0----0----2----2----0----0----2----2----|
   --2----x----2----3----2----x----2----3----|
   --3----2----0----3----3----2----0----3----|
   ------------------------------------------|

   --0----0----0----0----0----0----0---------|
   --1----1----1----1----1----1----1---------|
   --0----0----2----2----0----0----2---------|
   --2----x----2----3----2----x----3---------|
   --3----2----0----3----3----2----3---------|
   ------------------------------------------|


   Guitar 2:

   --3----3----3----3----3----3----3----3----|
   --3----3----3----3----3----3----3----3----|
   --0----2----0----0----0----2----0----0----|
   --0----0----2----2----0----0----2----2----|
   --2----x----2----3----2----x----2----3----|
   --3----2----0---------3----2----0---------|

   --3----3----3----3----3----3----3---------|
   --3----3----3----3----3----3----3---------|
   --0----2----0----0----0----2----0---------|
   --0----0----2----2----0----0----2---------|
   --2----x----2----3----2----x----3---------|
   --3----2----0---------3----2--------------|

   Guitar 3:

   -9-8^9---9-8^9---|9-8^9---9-8^9---|9-8^9---9-8^9---|9-8^9---9-----|
   -------9-------9-|------9-------9-|------9-------9-|------9---6-7^|
   -----------------|----------------|----------------|--------------|
   -----------------|----------------|----------------|--------------|
   -----------------|----------------|----------------|--------------|
   -----------------|----------------|----------------|--------------|

   ---8^9---9-8^9---|9-8^9---9-8^9---|9-8^9---9-8^9---|9-8^9---9-----|
   -9-----9-------9-|------9-------9-|------9-------9-|------9---6-7^|
   -----------------|----------------|----------------|--------------|
   -----------------|----------------|----------------|--------------|
   -----------------|----------------|----------------|--------------|
   -----------------|----------------|----------------|--------------|

   ---8^9---9-8^9---|9-8^9---9-8^9---|9-8^9---9-8^9---|9-8^9---9-----|
   -9-----9-------9-|------9-------9-|------9-------9-|------9-------|
   -----------------|----------------|----------------|--------------|
   -----------------|----------------|----------------|--------------|
   -----------------|----------------|----------------|--------------|
   -----------------|----------------|----------------|--------------|

2nd Verse & Pre-chorus:


   Guitar 1:

   --0----0----0----0----0----0----0----0----|
   --1----1----1----1----1----1----1----1----|
   --2----2----2----2----2----2----2----2----|
   --2----3----2----3----2----3----2----3----|
   --0----3----0----3----0----3----0----3----|
   ------------------------------------------|

   --0----3----0--0--0--3--|
   --1----3----1--1--1--3--|
   --0----0----2--0--0--0--|
   --2----0----2--x--2--0--|
   --3----2----0--2--3--2--|
   -------3-------------3--|


   Guitar 2:

   --3----3----3----3----3----3----3----3----|
   --3----3----3----3----3----3----3----3----|
   --0----0----0----0----0----0----0----0----|
   --2----2----2----2----2----2----2----2----|
   --2----3----2----3----2----3----2----3----|
   --0---------0---------0---------0---------|

   --3----2----3--3--3--2--|
   --3----3----3--3--3--3--|
   --0----2----0--0--0--2--|
   --2----0----2--2--0--0--|
   --2---------2--x--2-----|
   --3---------0--2--3-----|

   Guitar 3:

   -----------|---|--|--|--|--|--|--|--|--|--|--|--|-------|------|
   ---------1-|---|--|--|--|--|--|--|--|--|--|--|--|-------|------|
   0^2----2---|---|--|--|--|--|--|--|--|--|--|--|--|0^2----|------|
   -----2-----|3~~|--|--|--|--|--|--|--|--|--|--|--|-------|---5--|
   -----------|---|--|--|--|--|--|--|--|--|--|--|--|----2--|3-----|
   -----------|---|--|--|--|--|--|--|--|--|--|--|--|-------|------|


Bridge:

   Guitar 1:

   --3----0----3----0----3----0----3------------|
   --3----1----3----1----3----1----3------------|
   --0----2----0----2----0----2----4------------|
   --0----3----0----3----0----3----5------------|
   --2----3----2----3----2----3----5------------|
   --3---------3---------3----------------------|



   Guitar 2:

   --2----3----2----3----2----3----2------------|
   --3----3----3----3----3----3----3------------|
   --2----0----2----0----2----0----2------------|
   --0----2----0----2----0----2----0------------|
   -------3---------3---------3-----------------|
   ---------------------------------------------|


   Guitar 3:

   ------|------|------|------|------|------|------|------|------|
   ------|------|------|------|------|------|------|------|--5b6-|
   -4b5--|-5b7--|-4b5--|-5b7--|-4b5--|-5b7--|-4b5--|-5b7--|------|
   ------|------|------|------|------|------|------|------|------|
   ------|------|------|------|------|------|------|------|------|
   ------|------|------|------|------|------|------|------|------|


Interlude/chorus opening:


   Guitar 2:

   --3----3----3----3----3----3----3----3----|
   --3----3----3----3----3----3----3----3----|
   --0----2----0----0----0----2----0----0----|
   --0----0----2----2----0----0----2----2----|
   --2----x----2----3----2----x----2----3----|
   --3----2----0---------3----2----0---------|

Chorus & outro:


   Guitar 1:

   --2----2----2----3----2----2----2----3----|
   --3----3----3----3----3----3----3----3----|
   --2----2----4----0----2----2----4----0----|
   --0----x----4----0----0----x----4----0----|
   -------4----2----2---------4----2----2----|
   -----------------3-------------------3----|

   --2----2----2----3----2----2----2----3--------2----|
   --3----3----3----3----3----3----3----3--------3----|
   --2----2----4----0----2----2----4----0--------2----|
   --0----x----4----0----0----x----4----0--------0----|
   -------4----2----2---------4----2----2-------------|
   -----------------3-------------------3-------------|


   Guitar 2:

   --0----0----2----2----0----0----2----2----|
   --2----2----2----3----2----2----2----3----|
   --2----2----2----2----2----2----2----2----|
   --2----2----4----0----2----2----4----0----|
   --0----x----4---------0----x----4---------|
   -------4----2--------------4----2---------|

   --0----0----2----2----0----0----2----2--------0----|
   --2----2----2----3----2----2----2----3--------2----|
   --2----2----2----2----2----2----2----2--------2----|
   --2----2----4----0----2----2----4----0--------2----|
   --0----x----4---------0----x----4-------------0----|
   -------4----2--------------4----2------------------|

   Guitar 3:

   -11-10^11----11-10^11---|11-10^11----11-10^11---|11-10^11----11-10^11---|11-10^11----11-----|
   ----------11---------11-|---------11---------11-|---------11---------11-|---------11----8-9^|
   ------------------------|-----------------------|-----------------------|-------------------|
   ------------------------|-----------------------|-----------------------|-------------------|
   ------------------------|-----------------------|-----------------------|-------------------|
   ------------------------|-----------------------|-----------------------|-------------------|

   ----10^11----11-10^11---|11-10^11----11-10^11---|11-10^11----11-10^11---|11-10^11----11-----|
   -11-------11---------11-|---------11---------11-|---------11---------11-|---------11----8-9^|
   ------------------------|-----------------------|-----------------------|-------------------|
   ------------------------|-----------------------|-----------------------|-------------------|
   ------------------------|-----------------------|-----------------------|-------------------|
   ------------------------|-----------------------|-----------------------|-------------------|

   -11-10^11----11-10^11---|11-10^11----11-10^11---|11-10^11----11-10^11---|11-10^11----11-----|
   ----------11---------11-|---------11---------11-|---------11---------11-|---------11----8-9^|
   ------------------------|-----------------------|-----------------------|-------------------|
   ------------------------|-----------------------|-----------------------|-------------------|
   ------------------------|-----------------------|-----------------------|-------------------|
   ------------------------|-----------------------|-----------------------|-------------------|

   ----10^11----11-10^11---|11-10^11----11-10^11---|11-10^11----11-10^11---|11-10^11----11-----|
   -11-------11---------11-|---------11---------11-|---------11---------11-|---------11----8-9^|
   ------------------------|-----------------------|-----------------------|-------------------|
   ------------------------|-----------------------|-----------------------|-------------------|
   ------------------------|-----------------------|-----------------------|-------------------|
   ------------------------|-----------------------|-----------------------|-------------------|

   -11-10^11----11-10^11---|11-10^11----11-10^11---|11-10^11----11-10^11---|11-10^11----11-----|
   ----------11---------11-|---------11---------11-|---------11---------11-|---------11----8-9^|
   ------------------------|-----------------------|-----------------------|-------------------|
   ------------------------|-----------------------|-----------------------|-------------------|
   ------------------------|-----------------------|-----------------------|-------------------|
   ------------------------|-----------------------|-----------------------|-------------------|

   ----10^11----11-10^11---|11-10^11----11-10^11---|11-10^11----11-10^11---|11-10^11----11-----|
   -11-------11---------11-|---------11---------11-|---------11---------11-|---------11--------|
   ------------------------|-----------------------|-----------------------|-------------------|
   ------------------------|-----------------------|-----------------------|-------------------|
   ------------------------|-----------------------|-----------------------|-------------------|
   ------------------------|-----------------------|-----------------------|-------------------|
Suggest correction
Creating personal tab
Creating personal tab
You can edit any tab online and save it as your Personal.

You can edit, replace or remove any tab part or add personal notes – all changes will be seen only by you.

Personal tabs can be accessed anytime from any device, even offline.
Learn more »
Give kudos to tab author, rate the tab!
1 2 3 4 5
comments
print report bad tab
guest
You may want to rate the tab now too:
select rating
Wanna post a correction for this tab? Suggest correction