Oops, an error
Loading. Please wait.

There And Back Again Bass Tab

5,745 views 3 this week
5 commentsread comments
1 2 3 4 5
x 8
add to favorites
launch autoscroll
font size
0
reset
guitar tuner
×
Best way to learn
"There And Back Again"
Autoscroll
slow
fast
+/-
esc
set tempo
stop
Author
Difficulty
Tuning
  follow
novice
D A D G
Bassist: Josh Paul


Note:  Paul plays the song with a 5-string, but I tabbed it out with a four String.

Intro

G]-----------------------------------------|
D]------------------(x3)-------------------|
A]-----------------------------------------|
D]3-00000-3-00000-3---------6-5-3----------|

Verse

G]-----------------------------------------|
D]------------------(x3)-------------------|
A]--------------------------3-5------------|
D]3-00000-3-00000---------6----------------|

G]-----------------------------------------|
D]-------------------(x3)------------------|
A]------------------------3-6-5------------|
D]3-00000-3-00000-3------------------------|

Pre-Chorus

G]-----------------------------------------|
D]---------------(x3)----------------------|
A]--------------------1-3------------------|
D]3-000-3-000------------------------------|

Chorus

G]----------------------------------------|
D]-------------(x2)-----------------------|
A]----3-0-5-3-------1-1-1----0-3----------|
D}0-0---------------------3---------------|

G]----------------------------------------|
D]-------------(x2)-----------------------|
A]----3-0-5-3-------1-1-1--0-3------------|
D]0-0-------------------------------------|

Bridge

G]----------------------------------------|
D]---------(x3)---------------------------|
A]--------------6-55555-6-55555-----------|
D]6-5-3-0---------------------------------|

G]----------------------------------------------|
D]---------(x3)------------------(x2)-----------|
A]--------------6-55555-6-55555-------1-1-3-3---|
D]6-5-3-0---------------------------------------|

Ending Chorus

G]----------------------------------------------|
D]----3-0-5-3-----3-0-5-3-----------------------|
A]5-5---------3-3-----------2-2-2---3-----------|
D]--------------------------------5-------------|

Ending Note

G]-------|
D]-------|
A]-------|
D]0~-----|

Song Structure:

Intro (x2)
Verse
Pre-Chorus
Chorus
Intro
Verse
Pre-Chorus
Chorus
Bridge
Chorus
Ending Chorus (x2)
Bridge
Ending Note

Thats it!  This is Daughtry's best song, and I was surprised it wasn't tabbed yet.  
to the song for timing, and note length.

This is my first tab, so go easy on me.
Suggest correction
comments
print report bad tab
5 comments total. Showing first comments.
0 reply
MT's #1 Fan 30 Feb 05, 2007 03:44 AM

it wasnt tabbed, because daughtry doent have any thing but weigner tabbers. but good bass tab

+1 reply
__Ronnie__ 1,009 Feb 22, 2007 03:53 PM

Finally someone tabbing out Daughtry for bass. Great job with this too, sounds really good. 5 stars :)

+1 reply
BASSISTSRUL3 10 Oct 18, 2007 11:51 PM

Great Tab 5*s

guest
You may want to rate the tab now too:
select rating
Wanna post a correction for this tab? Suggest correction