Oops, an error
Loading. Please wait.

Torches bass

91 views 1 this week
no commentswrite comment
1 2 3 4 5
3 more votes to show rating
add to favorites
×
Save as Personal and add changes to this tab that will be seen only by you. Learn more ›
×
You can save this tab as Personal to edit and correct it or add notes. All changes will be seen only by you. Learn more »
launch autoscroll
font size
0
reset
guitar tuner
edit
Autoscroll
slow
fast
+/-
esc
set tempo
stop
Daughtry's new single.  Should be a very nice tab to do :)

I finally figured out how I can do timings on my bass tabs :o 

-------------------------------------------------------------------------------------------------------------

Intro: G|---------------------------------|
       D|---------------------------------|
       A|-------3---------------3---------|
       E|-5~------1~----3-5~------1~------|
          * * * * * * * * * * * * * * * *

Verse: G|---------------------------------|
       D|---------------------------------| X2
       A|-------3---------------3---------|
       E|-5~------1~----3-5~------1~------|
          * * * * * * * * * * * * * * * *

            All the hate and lies around us.

            Like an ember in the brush

            And can you picture a world without it?

            And turn it all to ash and dust

Pre-Chorus: G|-----------------------------------------------------------------|
            D|-----------------------------------------------------------------|
            A|-------------3-3-----------------------------3-3-----------------|
            E|-5-5-5-5-5-5-----1-1-1-1-1-1-3-3-5-5-5-5-5-5-----1-1-1-1-1-1-1-1-|
               *   *   *   *   *   *   *   *   *   *   *   *   *   *   *   * 

               We keep waiting on a day that never comes and never comes

               Too late is not a thing and we just gotta be stronger

            G|------------------------------------|
            D|------------------------------------|
            A|------------------------------------|
            E|-3-3-3-3-3-3-3-3-3-3-3-3-3-3-3-3-1~-|
               *   *   *   *   *   *   *   *   *

               Oh          gotta be stronger

Chorus: G|-----------------------------------------------------------------|
        D|-----------------------------------------------------------------| X2
        A|-3-3-3-3-3-3-3-3-------------------------------------------------|
        E|-----------------1-1-1-1-1-1-3-3-5-5-5-5-5-5-7-7-3-3-3-3-3-3-3-3-|
           *   *   *   *   *   *   *   *   *   *   *   *   *   *   *   * 

           Love is like a torch that's burning bright. 

           Carry it on, carry it on and you'll see

           Fire will shine a light on the darkest side. 

           Carry it on, carry it on. 'Cause we can 

        G|---------------------------------|
        D|---------------------------------|
        A|-3~------------------------------|
        E|-----3~--1~------5~--3~--1~------|
           * * * * * * * * * * * * * * * * 

           never right all the wrongs. So leave the 

           past well enough alone. And say

Pre-Verse: G|-----------------------------------------------------------------|
           D|-----------------------------------------------------------------|
           A|-3-3-3-3-3-3-0-0-------------------------------------------------|
           E|-----------------1-1-1-1-1-1-3-3-5-5-5-5-5-5-7-7-3-3-3-3-3-3-5-5-|
              *   *   *   *   *   *   *   *   *   *   *   *   *   *   *   *

Verse: G|-----------------------------------------------------------------|
       D|-----------------------------------------------------------------| X2
       A|-------------3-3-----------------------------3-3-----------------|
       E|-5-5-5-5-5-5-----1-1-1-1-1-1-3-3-5-5-5-5-5-5-----1-1-1-1-1-1-1-1-|
          *   *   *   *   *   *   *   *   *   *   *   *   *   *   *   * 

          Take a look at what we started

          Oh, spreading kindness all around

          Don't you know it's so contagious? Yeah

          Take a hit and pass it down

Pre-Chorus: G|-----------------------------------------------------------------|
            D|-----------------------------------------------------------------|
            A|-------------3-3-----------------------------3-3-----------------|
            E|-5-5-5-5-5-5-----1-1-1-1-1-1-3-3-5-5-5-5-5-5-----1-1-1-1-1-1-1-1-|
               *   *   *   *   *   *   *   *   *   *   *   *   *   *   *   * 

               We keep waiting on a day that never comes and never comes

            G|------------------------------------|
            D|------------------------------------|
            A|------------------------------------|
            E|-3-3-3-3-3-3-3-3-3-3-3-3-3-3-3-3-1~-|
               *   *   *   *   *   *   *   *   *

               Too late is not a thing and we just gotta be stronger

Chorus: G|-----------------------------------------------------------------|
        D|-----------------------------------------------------------------| X2
        A|-3-3-3-3-3-3-3-3-------------------------------------------------|
        E|-----------------1-1-1-1-1-1-3-3-5-5-5-5-5-5-7-7-3-3-3-3-3-3-3-3-|
           *   *   *   *   *   *   *   *   *   *   *   *   *   *   *   * 

           Love is like a torch that's burning bright. 

           Carry it on, carry it on and you'll see

           Fire will shine a light on the darkest side. 

           Carry it on, carry it on. 'Cause we can 

        G|---------------------------------|
        D|---------------------------------|
        A|-3~------------------------------|
        E|-----3~--1~------5~--3~--1~------|
           * * * * * * * * * * * * * * * * 

           never right all the wrongs. So leave the 

           past well enough alone. And say

Pre-Verse: G|-----------------------------------------------------------------|
           D|-----------------------------------------------------------------| X2
           A|-3-3-3-3-3-3-0-0-------------------------------------------------|
           E|-----------------1-1-1-1-1-1-3-3-5-5-5-5-5-5-7-7-3-3-3-3-3-3-5-5-|
              *   *   *   *   *   *   *   *   *   *   *   *   *   *   *   *

              Just say...

              Just say...

              (Whoo hoo) It's gonna be alright (Whoo hoo) Yeah!

              (Whoo hoo) It's gonna be alright (Whoo hoo) Yeah!

Chorus: G|---------------------------------------------------------|
        D|---------------------------------------------------------|
        A|-3-3-3-3-3-3-3-3-----------------------------------------|
        E|-----------------1-1-1-1-1-1-3-3-5-5-5-5-5-5-7-7-3~------|
           *   *   *   *   *   *   *   *   *   *   *   *   *  * * * 

           Love is like a torch that's burning bright. 

           Carry it on, carry it on and you'll see

        G|-----------------------------------------------------------------|
        D|-----------------------------------------------------------------|
        A|-3-3-3-3-3-3-3-3-------------------------------------------------|
        E|-----------------1-1-1-1-1-1-3-3-5-5-5-5-5-5-7-7-3-3-3-3-3-3-3-3-|
           *   *   *   *   *   *   *   *   *   *   *   *   *   *   *   * 

           Fire will shine a light on the darker side.

           Carry it on, carry it on and say

Outro: G|-----------------------------------------------------------------|
       D|-----------------------------------------------------------------| X2
       A|-3-3-3-3-3-3-0-0-------------------------------------------------|
       E|-----------------1-1-1-1-1-1-3-3-5-5-5-5-5-5-7-7-3-3-3-3-3-3-5-5-|
          *   *   *   *   *   *   *   *   *   *   *   *   *   *   *   *

          (Whoo hoo) It's gonna be alright (Whoo hoo) Yeah!

          (Whoo hoo) It's gonna be alright (Whoo hoo) Yeah!

          (Whoo hoo) It's gonna be alright (Whoo hoo) Yeah!

          (Whoo hoo) It's gonna be alright (Whoo hoo) Yeah!

       G|---------------------------------|
       D|---------------------------------|
       A|-3~------------------------------|
       E|---------1~------5~------3~------|
          * * * * * * * * * * * * * * * *

            
            
Suggest correction
Creating personal tab
Creating personal tab
You can edit any tab online and save it as your Personal.

You can edit, replace or remove any tab part or add personal notes – all changes will be seen only by you.

Personal tabs can be accessed anytime from any device, even offline.
Learn more »
Give kudos to tab author, rate the tab!
1 2 3 4 5
comments
print report bad tab
guest
You may want to rate the tab now too:
select rating
Wanna post a correction for this tab? Suggest correction