Oops, an error
Loading. Please wait.

Traffic Light tab

version 2
version 2

Whole song

49 views 1 this week
no commentswrite comment
1 2 3 4 5
3 more votes to show rating
add to favorites
×
Save as Personal and add changes to this tab that will be seen only by you. Learn more ›
×
You can save this tab as Personal to edit and correct it or add notes. All changes will be seen only by you. Learn more »
launch autoscroll
font size
0
reset
how to read this tab
guitar tuner
edit
Autoscroll
slow
fast
+/-
esc
set tempo
stop
Author
[Intro]

Eb|--------------------------------------------------------------------------------------------------|
Bb|--------------------------------------------------------------------------------------------------|
Gb|--------------------------------------------------------------------------------------------------|
Db|--------7--------7-----7--------6--------6-----6--------9--------9-----9--------6--------6-----6--|
Ab|-----7--------7--------------7--------7--------------7--------7--------------7--------7-----------|
Eb|--5--------5--------5-----5--------5--------5-----5--------5--------5-----5--------5--------5-----|


[Verse 1]

Eb|--------------------------------------------------------------------------------------------------|
Bb|--------------------------------------------------------------------------------------------------|
Gb|--------------------------------------------------------------------------------------------------|
Db|--------7--------7-----7--------6--------6-----6--------9--------9-----9--------6--------6-----6--|
Ab|-----7--------7--------------7--------7--------------7--------7--------------7--------7-----------|
Eb|--5--------5--------5-----5--------5--------5-----5--------5--------5-----5--------5--------5-----|

Eb|--------------------------------------------------------------------------------------------------|
Bb|--------------------------------------------------------0--------0-----0--------------------------|
Gb|--------2--------2-----2--------1--------1-----1--------------------------------1--------1-----1--|
Db|--------------------------------------------------------------------------------------------------|
Ab|-----4--------4--------------4--------4--------------4--------4--------------4--------4-----------|
Eb|--2--------2--------2-----2--------2--------2-----2--------2--------2-----2--------2--------2-----|

Eb|--------------------------------------------------------------------------------------------------|
Bb|--------------------------------------------------------0--------0-----0--------------------------|
Gb|--------2--------2-----2--------1--------1-----1--------------------------------1--------1-----1--|
Db|-----2--------2--------------2--------2--------------2--------2--------------2--------2-----------|
Ab|--------------------------------------------------------------------------------------------------|
Eb|--0--------0--------0-----0--------0--------0-----0--------0--------0-----0--------0--------0-----|

Eb|--------------------------------------------------------------------------------------------------|
Bb|--------------------------------------------------------------------------------------------------|
Gb|--7-7-7-7-7-7-7-7-7-7-7-7-7-7-7-7-7-7-7-7-7-7-7-7-7-7-7-7-7-7-7-7---------------------------------|
Db|--7-7-7-7-7-7-7-7-7-7-7-7-7-7-7-7-7-7-7-7-7-7-7-7-7-7-7-7-7-7-7-7---------------------------------|
Ab|--5-5-5-5-5-5-5-5-5-5-5-5-5-5-5-5-5-5-5-5-5-5-5-5-5-5-5-5-5-5-5-5---------------------------------|
Eb|--------------------------------------------------------------------------------------------------|


[Chorus]

Guitar 1 in 2nd part of chorus
Eb|------------------------------------------------------------------------------------------------------|
Bb|------------------------------------------------------------------------------------------------------|
Gb|------------------------------------------------------------------------------------------------------|
Db|-------------------------------------------------------------------------------------------------19---|
Ab|--11-12-11-/16\--11-12-11-/16\-11-12-11----11-12-11-/16\--11-12-11-/16\-11-12-11---11-12-11-/16-------|
Eb|------------------------------------------------------------------------------------------------------|

Guitar 2
Eb|-------------------------------------------------------------------------------------------------------|
Bb|-------------------------------------------------------------------------------------------------------|
Gb|-----------------------------------1-1-1-1-1-1-1-1-1-1-1-1-1-1-1-1-------------------------------------|
Db|-7-7-7-7-7-7-7-7-7-7-7-7-7-7-7-7---2-2-2-2-2-2-2-2-2-2-2-2-2-2-2-2---4-4-4-4-4-4-4-4-4-4-4-4-4-4-4-4---|
Ab|-7-7-7-7-7-7-7-7-7-7-7-7-7-7-7-7---2-2-2-2-2-2-2-2-2-2-2-2-2-2-2-2---4-4-4-4-4-4-4-4-4-4-4-4-4-4-4-4---|
Eb|-5-5-5-5-5-5-5-5-5-5-5-5-5-5-5-5---0-0-0-0-0-0-0-0-0-0-0-0-0-0-0-0---2-2-2-2-2-2-2-2-2-2-2-2-2-2-2-2---|

Eb|-------------------------------------------------------------------------------------------------------|
Bb|-------------------------------------------------------------------------------------------------------|
Gb|-------------------1-1-1-1-1-1-1-1---7-7-7-7-7-7-7-7-7-7-7-7-7-7-7-7-----------------------------------|
Db|-7-7-7-7-7-7-7-7---2-2-2-2-2-2-2-2---7-7-7-7-7-7-7-7-7-7-7-7-7-7-7-7---4-4-4-4-4-4-4-4-4-4-4-4-4-4-4-4-|
Ab|-7-7-7-7-7-7-7-7---2-2-2-2-2-2-2-2---5-5-5-5-5-5-5-5-5-5-5-5-5-5-5-5---4-4-4-4-4-4-4-4-4-4-4-4-4-4-4-4-|
Eb|-5-5-5-5-5-5-5-5---0-0-0-0-0-0-0-0-------------------------------------2-2-2-2-2-2-2-2-2-2-2-2-2-2-2-2-|

Eb|-------------------------------------------------------------------------------------------------------|
Bb|-------------------------------------------------------------------------------------------------------|
Gb|-1-1-1-1-1-1-1-1---7~----------------------------------------------------------------------------------|
Db|-2-2-2-2-2-2-2-2---7~----------------------------------------------------------------------------------|
Ab|-2-2-2-2-2-2-2-2---5~----------------------------------------------------------------------------------|
Eb|-0-0-0-0-0-0-0-0---------------------------------------------------------------------------------------|


[Verse 2]

Eb|--------------------------------------------------------------------------------------------------|
Bb|--------------------------------------------------------------------------------------------------|
Gb|--------------------------------------------------------------------------------------------------|
Db|--------7--------7-----7--------6--------6-----6--------9--------9-----9--------6--------6-----6--|
Ab|-----7--------7--------------7--------7--------------7--------7--------------7--------7-----------|
Eb|--5--------5--------5-----5--------5--------5-----5--------5--------5-----5--------5--------5-----|

Eb|--------------------------------------------------------------------------------------------------|
Bb|--------------------------------------------------------0--------0-----0--------------------------|
Gb|--------2--------2-----2--------1--------1-----1--------------------------------1--------1-----1--|
Db|--------------------------------------------------------------------------------------------------|
Ab|-----4--------4--------------4--------4--------------4--------4--------------4--------4-----------|
Eb|--2--------2--------2-----2--------2--------2-----2--------2--------2-----2--------2--------2-----|

Eb|--------------------------------------------------------------------------------------------------|
Bb|--------------------------------------------------------0--------0-----0--------------------------|
Gb|--------2--------2-----2--------1--------1-----1--------------------------------1--------1-----1--|
Db|-----2--------2--------------2--------2--------------2--------2--------------2--------2-----------|
Ab|--------------------------------------------------------------------------------------------------|
Eb|--0--------0--------0-----0--------0--------0-----0--------0--------0-----0--------0--------0-----|

Eb|--------------------------------------------------------------------------------------------------|
Bb|--------------------------------------------------------------------------------------------------|
Gb|--7-----------------------------------------------------------------------------------------------|
Db|--7-----------------------------------------------------------------------------------------------|
Ab|--5-----------------------------------------------------------------------------------------------|
Eb|--------------------------------------------------------------------------------------------------|
   (Strum x32)


[Chorus]

Guitar 1 in 2nd part of chorus
Eb|------------------------------------------------------------------------------------------------------|
Bb|------------------------------------------------------------------------------------------------------|
Gb|------------------------------------------------------------------------------------------------------|
Db|-------------------------------------------------------------------------------------------------19---|
Ab|--11-12-11-/16\--11-12-11-/16\-11-12-11----11-12-11-/16\--11-12-11-/16\-11-12-11---11-12-11-/16-------|
Eb|------------------------------------------------------------------------------------------------------|

Guitar 2
Eb|------------------------------------------------------------------------------------------------------|
Bb|------------------------------------------------------------------------------------------------------|
Gb|-----------------------------------1-1-1-1-1-1-1-1-1-1-1-1-1-1-1-1------------------------------------|
Db|-7-7-7-7-7-7-7-7-7-7-7-7-7-7-7-7---2-2-2-2-2-2-2-2-2-2-2-2-2-2-2-2---4-4-4-4-4-4-4-4-4-4-4-4-4-4-4-4--|
Ab|-7-7-7-7-7-7-7-7-7-7-7-7-7-7-7-7---2-2-2-2-2-2-2-2-2-2-2-2-2-2-2-2---4-4-4-4-4-4-4-4-4-4-4-4-4-4-4-4--|
Eb|-5-5-5-5-5-5-5-5-5-5-5-5-5-5-5-5---0-0-0-0-0-0-0-0-0-0-0-0-0-0-0-0---2-2-2-2-2-2-2-2-2-2-2-2-2-2-2-2--|

Eb|-------------------------------------------------------------------------------------------------------|
Bb|-------------------------------------------------------------------------------------------------------|
Gb|-------------------1-1-1-1-1-1-1-1---7-7-7-7-7-7-7-7-7-7-7-7-7-7-7-7-----------------------------------|
Db|-7-7-7-7-7-7-7-7---2-2-2-2-2-2-2-2---7-7-7-7-7-7-7-7-7-7-7-7-7-7-7-7---4-4-4-4-4-4-4-4-4-4-4-4-4-4-4-4-|
Ab|-7-7-7-7-7-7-7-7---2-2-2-2-2-2-2-2---5-5-5-5-5-5-5-5-5-5-5-5-5-5-5-5---4-4-4-4-4-4-4-4-4-4-4-4-4-4-4-4-|
Eb|-5-5-5-5-5-5-5-5---0-0-0-0-0-0-0-0-------------------------------------2-2-2-2-2-2-2-2-2-2-2-2-2-2-2-2-|

Eb|-------------------------------------------------------------------------------------------------------|
Bb|-------------------------------------------------------------------------------------------------------|
Gb|-1-1-1-1-1-1-1-1---7~----------------------------------------------------------------------------------|
Db|-2-2-2-2-2-2-2-2---7~----------------------------------------------------------------------------------|
Ab|-2-2-2-2-2-2-2-2---5~----------------------------------------------------------------------------------|
Eb|-0-0-0-0-0-0-0-0---------------------------------------------------------------------------------------|


[Bridge]

Eb|----------------------------------------------------------------|
Bb|----------------------------------------------------------------|
Gb|----------------------------------------------------------------|
Db|----------------------------------------------------------------|
Ab|--7--9--9--7--7--9--9--7--7--9--9--7--7--9--9--7--/12--/11--/7--|
Eb|----------------------------------------------------------------|



************************************

| b  Bend
| /  Slide up
| \  Slide down
| ~  Vibrato

************************************
Suggest correction
Creating personal tab
Creating personal tab
You can edit any tab online and save it as your Personal.

You can edit, replace or remove any tab part or add personal notes – all changes will be seen only by you.

Personal tabs can be accessed anytime from any device, even offline.
Learn more »
Give kudos to tab author, rate the tab!
1 2 3 4 5
comments
print report bad tab
guest
You may want to rate the tab now too:
select rating
Wanna post a correction for this tab? Suggest correction