Oops, an error
Loading. Please wait.

Used To tab

version 1
version 1

Whole song

Interactive

8,220 views 9 this week
no commentswrite comment
1 2 3 4 5
x 3
add to favorites
×
Save as Personal and add changes to this tab that will be seen only by you. Learn more ›
×
You can save this tab as Personal to edit and correct it or add notes. All changes will be seen only by you. Learn more »
launch autoscroll
font size
0
reset
how to read this tab
guitar tuner
edit
Autoscroll
slow
fast
+/-
esc
set tempo
stop
Author
Difficulty
Daughtry - Used To

Tuning: Standard

The first verse is decent..this one's more detailed.  I will
add the 2nd guitar to the chorus soon.

KEY:  .=palm mute       <-slide down
      *=harmonic

INTRO/VERSE
Guitar 1 - 3x
e|-----------------------------|
B|7-7-7-7-7-7-7-9-7------------|
G|-9-9-9-9-9-9-----9-----------|
D|-----------------------------|
A|-----------------------------|
E|-----------------------------|

afer the above riff is played twice then...
Guitar 2 - acoustic (:17)
e|0-------0--------0-----------|
B|0-------0--------0-----------|
G|9-------2--------4-----------|
D|9-16x---2-16x----4-16x-------|
A|7-------0--------2-----------|
E|-----------------------------|

Guitar 1 - 1x
e|-----------------------------|
B|-7-7-7-9-7--7-9-7---7-9-7----|
G|--9-9-----9-------9-------9--|
D|-----------------------------|
A|-----------------------------|
E|-----------------------------|

PRECHORUS
Guitar 2
e|-------------------|
B|-------------------|
G|-------------------|
D|-----7-7-7-7--9-9--|
A|14<--7-7-7-7--9-9--|
E|12<--5-5-5-5--7-7--|

CHORUS
Guitar 1
e|12--12--12--12--14--14--14--12--12--12--12-----14--14--14--14---|
B|--12--12--12--12--12--12--12--10--10--10--10s12--12--17--17--17-|
G|----------------------------------------------------------------|
D|----------------------------------------------------------------|
A|----------------------------------------------------------------|
E|----------------------------------------------------------------|

Guitar 2
e|-----------------------------|
B|-----------------------------|
G|-----------(6)---(8)---------|
D|9-----9-----7-----9----------|
A|7-8x--6-8x--7-8x--9--8x------|
E|0-----------5-----7----------|

Guitar 2
e|-------------------------------------|
B|-------------------------------------|
G|-------------------------------------|
D|2-----9-----7-----9------7-----9-----|
A|2-8x--6-8x--7-8x--9--8x--7-8x--9-8x--|
E|0-----------5-----7------5-----7-----|

VERSE
Guitar 1 - play entire INTRO/VERSE riff 1x

Guitar 2
e|---------------------------------|
B|---------------------------------|
G|---------------------------------|
D|9------2------4------2-----4-----|
A|7-16x--0-16x--2-16x--0-8x--2-8x--|
E|---------------------------------|

You can add an acoustic playing in the background here with...
e|0------0------0------0-----0-----|
B|0------0------0------0-----0-----|
G|9------2------4------2-----4-----|
D|9-16x--2-16x--4-16x--2-8x--4-8x--|
A|7------0------2------0-----2-----|
E|---------------------------------|

PRECHORUS

CHORUS

BRIDGE
Part 1
Guitar 1
e|------------------------------------------------------------|
B|------------------------------------------------------------|
G|------------------------------------------------------------|
D|22------22------22------22------77-------77------77------77-|
A|22------22------22------22------77-------77------77------77-|
E|00------00------00------00------55-------55------55------55-|

Guitar 2
e|----------------------------------------------------------------|
B|----------------------------------------------------------------|
G|---9999----9999----9999----9999-----9999----9999----9999----9999|
D|---xxxx----xxxx----xxxx----xxxx-----xxxx----xxxx----xxxx----xxxx|
A|---7777----7777----7777----7777-----7777----7777----7777----7777|
E|----------------------------------------------------------------|

BRIDGE
Part 2
Guitar 1
e|------------------------------------------------------------|
B|------------------------------------------------------------|
G|------------------------------------------------------------|
D|22------22------22------22------77-------77------77777777---|
A|22------22------22------22------77-------77------77777777---|
E|00------00------00------00------55-------55------55555555---|

Guitar 2
e|---0000----0000----0000----0000----0000-----0000------------|
B|---0000----0000----0000----0000----0000-----0000------------|
G|------------------------------------------------------------|
D|------------------------------------------------------------|
A|------------------------------------------------------------|
E|----------------------------------[5555*]--[5555*-----------|

BRIDGE
Part 3
Guitar 1  Turn distortion on here - v
e|--------------------------------------|
B|--------------------------------------|
G|--------------------------------------|
D|444444444444444422222222444444444-77--|
A|222222222222222200000000222222222-77--|
E|----------------------------------55--|
  .................................

Guitar 2 - acoustic
Strum these chords
e|0---------------0-------0-------|
B|0---------------0-------0-------|
G|9---------------2-------4-------|
D|9-16x-----------2-8x----4-8x----|
A|7---------------0-------2-------|
E|--------------------------------|

CHORUS - played 2x without the 577 and 799 chords at the
         very end played the 2nd time around.

            
            
Suggest correction
Creating personal tab
Creating personal tab
You can edit any tab online and save it as your Personal.

You can edit, replace or remove any tab part or add personal notes – all changes will be seen only by you.

Personal tabs can be accessed anytime from any device, even offline.
Learn more »
Give kudos to tab author, rate the tab!
1 2 3 4 5
comments
print report bad tab
guest
You may want to rate the tab now too:
select rating
Wanna post a correction for this tab? Suggest correction