Oops, an error
Loading. Please wait.

Used To tab

version 2
version 2

Whole song

Interactive

11,342 views 1 this week
1 commentread comment
1 2 3 4 5
x 7
add to favorites
×
Save as Personal and add changes to this tab that will be seen only by you. Learn more ›
×
You can save this tab as Personal to edit and correct it or add notes. All changes will be seen only by you. Learn more »
launch autoscroll
font size
0
reset
how to read this tab
guitar tuner
edit
Autoscroll
slow
fast
+/-
esc
set tempo
stop
Author
Difficulty
=====================================================================================
Title: *Used To*
Artist: Chris Daughtry
Album: Daughtry
=====================================================================================
Written by Chris Daughtry, Zac Molay and Howard Benson
Produced by
=====================================================================================
Label: Sony
Year: 2006
=====================================================================================
Track: -2-
=====================================================================================
Transcripted by Asa Gaston
=====================================================================================
Tuning: STANDARD ( E A D G B E )
=====================================================================================

-------------------------------------------------------------------------------------
Guitar 1 -{ E A D G B E }- Chris Daughtry - Acoustic/Electric (clean, dist.)
-------------------------------------------------------------------------------------
Guitar 2 -{ E A D G B E }- Phil X/Percussion - Electric (slight dist., dist.)
-------------------------------------------------------------------------------------
Guitar 3 -{ E A D G B E }- Phil X - Solo (dist.)
-------------------------------------------------------------------------------------

=====================================================================================
INTRO
=====================================================================================


 Gtr. 2
E|-----------------------------------|
B|---7---7---7---7---7---7---7-9-7---|
G|-----9---9---9---9---9---9-------9-|
D|-----------------------------------|
A|-----------------------------------|
E|-----------------------------------|

=====================================================================================
VERSE
=====================================================================================



E|-----------------------------------|---------------------------------|
B|---7---7---7---7---7---7---7-9-7---|-7---7---7---7---7---7---7-9-7---|
G|-----9---9---9---9---9---9-------9-|---9---9---9---9---9---9-------9-|
D|-----------------------------------|---------------------------------|
A|-----------------------------------|---------------------------------|
E|-----------------------------------|---------------------------------|

 Gtr. 1: w/ E                                 Asus

       E|-----------------------------------|---------------------------------|
       B|---7---7---7---7---7---7---7-9-7---|-7---7---7-9-7---7-9-7---7-9-7---|
       G|-----9---9---9---9---9---9-------9-|---9---9-------9-------9-------9-|
       D|-----------------------------------|---------------------------------|
       A|-----------------------------------|---------------------------------|
       E|-----------------------------------|---------------------------------|

=====================================================================================
PRE-CHORUS
=====================================================================================

 Gtrs. 1 & 2
E|------------------|
B|------------------|
G|------------------|
D|-7--7--7--7--9--9-|
A|-7--7--7--7--9--9-|
E|-5--5--5--5--7--7-|

=====================================================================================
CHORUS
=====================================================================================

 Gtr. 1: w/ E - B - A - B (2x  A - B

     Gtr. 2
      E|---12----12----12----12----14----14----14----14----|\
      B|------12----12----12----12----12----12----12----12-|\\ - - - -
      G|---------------------------------------------------|\\\ Play |
      D|---------------------------------------------------|///  3X  |
      A|---------------------------------------------------|// - - - -
      E|---------------------------------------------------|/

=====================================================================================
VERSE 2
=====================================================================================

 Gtr. 1: w/ E                                 Asus

       E|-----------------------------------|---------------------------------|\
       B|---7---7---7---7---7---7---7-9-7---|-7---7---7-9-7---7-9-7---7-9-7---|\\ - - - -
       G|-----9---9---9---9---9---9-------9-|---9---9-------9-------9-------9-|\\\ Play |
       D|-----------------------------------|---------------------------------|///  2x  |
       A|-----------------------------------|---------------------------------|// - - - -
       E|-----------------------------------|---------------------------------|/

=====================================================================================
PRE-CHORUS
=====================================================================================

 Gtrs. 1 & 2
E|------------------|
B|------------------|
G|------------------|
D|-7--7--7--7--9--9-|
A|-7--7--7--7--9--9-|
E|-5--5--5--5--7--7-|

=====================================================================================
CHORUS
=====================================================================================

 Gtr. 1: w/ E - B - A - B (2x  A - B

     Gtr. 2
      E|---12----12----12----12----14----14----14----14----|\
      B|------12----12----12----12----12----12----12----12-|\\ - - - -
      G|---------------------------------------------------|\\\ Play |
      D|---------------------------------------------------|///  3X  |
      A|---------------------------------------------------|// - - - -
      E|---------------------------------------------------|/

=====================================================================================
BRIDGE
=====================================================================================


 Gtr. 2
E|------------------|\         E|------------------|\
B|--------/9-9-9-9\-|\\        B|------------------|\\
G|--------/6-6-6-6\-|\\\ Play  G|---2-2--/9-9-9-9\-|\\\ Play
D|---2-2--/7-7-7-7\-|///  4x   D|---2-2--/6-6-6-6\-|///  4x
A|---2-2------------|//        A|---0-0--/7-7-7-7\-|//
E|---0-0------------|/         E|------------------|/



E|------------------|\         E|--------------------------|
B|--------/9-9-9-9\-|\\        B|--------------------------|
G|--------/6-6-6-6\-|\\\ Play  G|--------------------------|
D|---2-2--/7-7-7-7\-|///  4x   D|---9--9--9--9--9--9--9--9-|
A|---2-2------------|//        A|---9--9--9--9--9--9--9--9-|
E|---0-0------------|/         E|---7--7--7--7--7--7--7--7-|

=====================================================================================
INTERLUDE
=====================================================================================

Gtr. 1: w/ E                                      A                    B

      Gtr. 2
     E|------------------------------------------|----------------------------------------|
     B|---10-9-7-9--10-9-7-9--10-9-7-9--10-9-7-9-|-10-9-7-9--10-9-7-9--10-9-7-9--10-9-7-9-|
     G|----9-9-9-9---9-9-9-9---9-9-9-9---9-9-9-9-|--9-9-9-9---9-9-9-9---9-9-9-9---9-9-9-9-|
     D|------------------------------------------|----------------------------------------|
     A|------------------------------------------|----------------------------------------|
     E|------------------------------------------|----------------------------------------|
          PM - - - - - - - - - - - - - - - - - - - - - - - - - - - - - - - - - - - - - - }

E|----------|
B|----------|
G|----------|
D|---7--7---|
A|---7--7---|
E|---5--5---|

=====================================================================================
CHORUS
=====================================================================================

 Gtr. 1: w/ E - B - A - B (2x  A - B

     Gtr. 2
      E|---12----12----12----12----14----14----14----14----|\
      B|------12----12----12----12----12----12----12----12-|\\ - - - -
      G|---------------------------------------------------|\\\ Play |
      D|---------------------------------------------------|///  3X  |
      A|---------------------------------------------------|// - - - -
      E|---------------------------------------------------|/

=====================================================================================
OUTRO/SOLO
=====================================================================================

 Gtr. 1: w/ E - B - A - B (3x

     Gtr. 2
      E|---12----12----12----12----14----14----14----14----|\
      B|------12----12----12----12----12----12----12----12-|\\ - - - -
      G|---------------------------------------------------|\\\ Play |
      D|---------------------------------------------------|///  3X  |
      A|---------------------------------------------------|// - - - -
      E|---------------------------------------------------|/
       /
      /
     /
    /
   / (on 3rd time only)
E|------------------------------------------------------12b(full)r-(12)----12b(full)r-(12)-|
B|----------------------------------9-9-9--10-10-10--12-----------------12-----------------|
G|-------9-9-9--11-11-11--13-13-13---------------------------------------------------------|
D|---9\------------------------------------------------------------------------------------|
A|-----------------------------------------------------------------------------------------|
E|-----------------------------------------------------------------------------------------|

E|------12b(full)r-(12)-12-12~~~~~~~~~~|
B|---12--------------------------------|
G|-------------------------------------|
D|-------------------------------------|
A|-------------------------------------|
E|-------------------------------------|

===============================================================================================

<><><><><><><><>
Chord Diagrams
<><><><><><><><>

     E   Asus    A     B
E|---0-----0-----0-----2-----|
B|---0-----0-----2-----4-----|
G|---1-----2-----2-----4-----|
D|---2-----2-----2-----4-----|
A|---2-----0-----0-----2-----|
E|---0-----0-----0-----2-----|

***********
Lyrics-
***********



----------------
Guitar Legend
----------------

| h - Hammer On
| p - Pull Off
| H - Harmonic 
| P.H. - Pinch Harmonic
| H.H. - Harp Harmonic
| tr~~ - Trill
| ~ - Vibrato
| / - Slide Into
| \ - Slide Out Of
| b - Bend - (1/4): Fourth-Bend  (1/2): Half-Bend (1): Full-Bend   , ect.
| r - Bend Release
| bh - Bend Hold
| pb - Pre-Bend
| pbr - Pre-Bend Release
| ( ) - Ghost Note
| P.M. - Palm-Muted

===============================================================================================
NOTE: Nice little song by Chris and his crew. Not really my type of rock song, but
      Chris Daughtry definately compromised that. Just going through the album transcripting.
      I love to get a new band that I love that no one's tabbed =D . Going through the album
      by order, so you'lle probably see Over You or Home next. Well... ...ENJOY!!!

                                                                    -Asa (myspace.com/asagaston)

-PLAY AND RATE MY OTHER DAUGHTRY TAB; 'ITS NOT OVER' =D thanx 
   

            
            
Suggest correction
Creating personal tab
Creating personal tab
You can edit any tab online and save it as your Personal.

You can edit, replace or remove any tab part or add personal notes – all changes will be seen only by you.

Personal tabs can be accessed anytime from any device, even offline.
Learn more »
comments
print report bad tab
1 comment total.
0 reply
Ninzzz127 264 Sep 12, 2010 01:32 AM

Awesome! Daughtry rocks!!

guest
You may want to rate the tab now too:
select rating
Wanna post a correction for this tab? Suggest correction