Oops, an error
Loading. Please wait.

What About Now Bass Tab

version 1
version 1

Whole song

Interactive

8,428 views 1 this week
no commentswrite comment
1 2 3 4 5
please rate
add to favorites
launch autoscroll
font size
0
reset
guitar tuner
Autoscroll
slow
fast
+/-
esc
set tempo
stop
Help us to improve Ultimate-Guitar.com Take our survey!
×
Author
-------------------------------------------------------------------------------
			     WHAT ABOUT NOW? - CHRIS DAUGHTRY
-------------------------------------------------------------------------------

Tabbed By : chakbi
e-mail: 

Tuning: Standard
Intro:

Verse: Shadows fill an empty heart as love is fading
       From all the things that we are or are not saying
       Can we see beyond the stars and make it to the dawn?

Verse:
  Change the colors of the sky and open up to
G|---------------------------------------------------------------------------|
D|--------------------------2-----22-------2---------------------------------|
A|0-------00-----------0-----------------------------------------------------|
E|---------------------------------------------------------------------------|
  The ways you made me feel alive,  the ways I loved you
G|---------------------------------------------------------------------------|
D|---------------------------2------22----------2----------------------------|
A|0--------00-----------0-----------------------------0----------------------|
E|---------------------------------------------------------------------------|
  For all the things that never died , to make it through the night
G|---------------------------------------------------------------------------|
D|------------------------------2--------22---------2------------------------|
A|----------00-----------0--------------------------------------5------------|
E|---------------------------------------------------------------------------|
  Love will find you
G|---------------------------------------------------------------------------|
D|-----------3---33---3------------------------------------------------------|
A|55----5--------------------------------------------------------------------|
E|---------------------------------------------------------------------------|
Chorus:
  What about now?  What about today?  What if you're making me all that I  
G|---------------------------------------------------------------------------|
D|----------------------------------------------------3-----33------3--------|
A|-----------3----33------3------0------00-------0---------------------------|
E|---------------------------------------------------------------------------|
  was meant to be?  What if our love never went away?   What if it's lost
G|---------------------------------------------------------------------------|
D|--------------------------------------------------------------------3------|
A|----5------55------------5-----3-----33-----3-----0-----00----0------------|
E|---------------------------------------------------------------------------|
  behind words we could never find?  Baby, before it's too late

G|---------------------------------------------------------------------------|
D|-------33--------3-------------------------------------------3-------------|
A|-----------------------5-----55------5--------3----33----3-----------------|
E|---------------------------------------------------------------------------|
  What about now?

G|---------------------------------------------------------------------------|
D|33-----3X--------------------2----22----2----------------------------------|
A|-------------0----00----0------------------0X------------------------------|
E|---------------------------------------------------------------------------|

Verse:   The sun is breaking in you're
  eyes, to start a new day. This broken heart can still survive with    
G|---------------------------------------------------------------------------|
D|2--------22------2----------------------------------------2----------------|
A|----------------------0--------------00----------0-------------------------|
E|---------------------------------------------------------------------------|
  a touch of your grace. Shadows fade into the light, I am by your side
G|---------------------------------------------------------------------------|
D|22---------2----------------------------------2----22--------2-------------|
A|-----------------0------------00--------0-------------------------5--------|
E|---------------------------------------------------------------------------|
  Where love will find you.
G|---------------------------------------------------------------------------|
D|-----------------3----33----3----------------------------------------------|
A|-55--------5---------------------------------------------------------------|
E|---------------------------------------------------------------------------|

Repeat chorus except last sentence:

  What about now, now that we're here, now that we've come this far
G|---------------------------------------------------------------------------|
D|33-----3-------------------------------------------------------------------|
A|------------5-----55------5-----0-----00-------0-----3------33-------------|
E|---------------------------------------------------------------------------|
  Just hold on,       there is nothing to fear, for I am right beside you
G|---------------------------------------------------------------------------|
D|-----2----22----2---------------------------------------3----33---3---33---|
A|3-------------------5---55--------5-----0----00-----0----------------------|
E|---------------------------------------------------------------------------|
  For all my life I am yours.
G|---------------------------------------------------------------------------|
D|---------------------------------------------------------------------------|
A|----5----55----5----55-----0X----------------------------------------------|
E|---------------------------------------------------------------------------|

  What about now? what about today? 
  What if you're making me all that I was meant to be?
  What if our love never went away? what if it's lost behind 
G|---------------------------------------------------------------------------|
D|------------------------------------------------3----33--------------------|
A|-------------0---00-----0----3----33-------3-------------------------------|
E|---------------------------------------------------------------------------|
  words we could never find?
G|---------------------------------------------------------------------------|
D|-3-------------5----55----5------------------------------------------------|
A|---------------------------------------------------------------------------|
E|---------------------------------------------------------------------------|
  
  Repeat chorus except last two sentences:

  Baby before it's too late (2X)
G|---------------------------------------------------------------------------|
D|---------------------3---33----3-------------------------------------------|
A|-----3----33-----3---------------------------------------------------------|
E|---------------------------------------------------------------------------|
  Baby befor it's too late,  What about now?
G|---------------------------------------------------------------------------|
D|---------------------3X----------------------------------------------------|
A|-----3----33-----3---------------------------------------------------------|
E|---------------------------------------------------------------------------|


| /  slide up
| \  slide down
| h  hammer-on
| p  pull-off
| ~  vibrato
| +  harmonic
| x  Mute note
===============================================================================
Suggest correction
What's this?
You can suggest a correction to this tab. Community and Mods will review your correction and vote to approve or reject it.
comments
We did not receive enough feedback on this tab! Please rate:
print report bad tab
1 2 3 4 5
guest
You may want to rate the tab now too:
select rating
Please do not post tabs as comments. Select "correction" instead!