Oops, an error
Loading. Please wait.

What About Now Bass Tab

version 2
version 2

Whole song

Interactive

1,775 views 3 this week
no commentswrite comment
1 2 3 4 5
3 more votes to show rating
add to favorites
launch autoscroll
font size
0
reset
guitar tuner
Autoscroll
slow
fast
+/-
esc
set tempo
stop
Help us to improve Ultimate-Guitar.com Take our survey!
×
Author
Difficulty
-------------------------------------------------------------------------------
			     Daughtry - What About Now?
-------------------------------------------------------------------------------

Tabbed By : Martin Carlin
e-mail: martincarlin87@hotmail.com

Tuning: Standard

Intro/Verse
===========

(don't play the intro)

G|---------------------------------------------------------------------------|
D|---------------------------------------------------------------------------|
A|---------------------------------------------------------------------------|
E|--5--5-5--3--0--0-0--1--5-repeat-------------------------------------------|

Chords: Am|E

then:

G|---------------------------------------------------------------------------|
D|---------------------------------------------------------------------------|
A|--5--5-5--5----------------------------------------------------------------|
E|-------------1-1-1-1--3-3-3-3/-15-15-15-15\-3------------------------------|

Chords: Dm|F|G

Chorus
======
G|---------------------------------------------------------------------------|
D|---------------------------------------------------------------------------|
A|--3--3-3-2-0--0-0----------3-5--5-5----------------------------------------|
E|------------------3-1--1-1-------------------------------------------------|x2

Chords: C|B|Am|G|F|C|Dm

then:

G|---------------------------------------------------------------------------|
D|---------------------------------------------------------------------------|
A|--3-3-3-3-3-3-3-3----------------------------------------------------------|
E|-------------------1-1-1-1-1-1-1-1-----------------------------------------|

Chords: C|F

then back into the verse but stop after playing Am the second time then come 
back in with E.

Bridge
=======
Here is the basic way to play it but add in passing tones (notes between the 
chords from the key of Am) to fill in the gaps and also when the eighth notes
kick in use some muting/stacatto after each note to get a good sound.

G|---------------------------------------------------------------------------|
D|---------------------------------------------------------------------------|
A|--5--5-5--------3--3-3--------5--5-5----------------5(x8)------------------|
E|---------5--5-5--------0--0-0--------5--5-5--1(x8)---------5~--------------|

Chords: Dm|Am|C|Em|Dm|Am|F|Dm|Am

Then there is no bass and when the break is coming to a crescendo build it up 
with G and go back into the chorus. Finish by playing C|F 3 times and end 
on the F. Sounds good if you end on a high F such as 13th fret on the E string.

===============================================================================
Suggest correction
Give kudos to tab author, rate the tab!
1 2 3 4 5
comments
print report bad tab
guest
You may want to rate the tab now too:
select rating
Wanna post a correction for this tab? Suggest correction