Oops, an error
Loading. Please wait.

What About Now Acoustic tab

version 2
version 2

Whole song

Interactive

28,893 views 27 this week
3 commentsread comments
1 2 3 4 5
x 13
add to favorites
×
Save as Personal and add changes to this tab that will be seen only by you. Learn more ›
×
You can save this tab as Personal to edit and correct it or add notes. All changes will be seen only by you. Learn more »
launch autoscroll
font size
0
reset
how to read this tab
guitar tuner
edit
Autoscroll
slow
fast
+/-
esc
set tempo
stop
Hello this is my first Tab, but not the first song i've learned.

This is a great song by daughtry, sang by Chris Daughtry from American Idol from what 
i dont remember.
I learned it by ear, and I think it's quite right, some parts sound kinda weird for me, 
correct it if i did some mistake.

Standard tuning
Capo 1st fret would be better, but it's fine without capo either


Intro

|-----------------------------------------------------------|
|----------1p0----------------------------------------------|
|--------2--------2-----------------------------------------|
|------2--------2------2------------------------------------|
|----0---------------0---0--5p3-2h3-------------------------|
|-----------------------------------------------------------|

|-----------------------------------------------------------|
|----------1p0----------------3p1---------------------------|
|--------2--------2------0-----------2----------------------|
|------2--------2------0---0-------2------------------------|
|----0---------------3--------------------------------------|
|-----------------------------------------------------------|

Am  Em

Am                      Em
  Shadows fill an empty heart

As love is fading,
Am                            Em
  From all the things that we are

But are not saying.
Am                       Em
  Can we see beyond the scars
                    D
And make it to the dawn?
Am                         Em
  Change the colors of the sky.

And open up to
Am                            Em
   The ways you made me feel alive,

The ways I loved you.
Am                               Em
  For all the things that never died,
                         D
To make it through the night,
           F
Love will find you.

              C
   What about now?
     C/B      Am
What about today?
           G   F                  C      Dm
What if you're making me all that I was meant to be?
             C         C/B   Am
What if our love never went away?
         G   F                     C      Dm
What if it's lost behind words we could never find?
         C            F
Baby, before it's too late,
             Am   Em
What about now?


Am                             Em
  The sun is breaking in your eyes

To start a new day.
Am                               Em
  This broken heart can still survive

With a touch of your grace.
Am                        Em
   Shadows fade into the light.
              D
I am by your side,
                   F
Where love will find you.

           C
   What about now?
     C/B      Am
What about today?
           G   F                  C      Dm
What if you're making me all that I was meant to be?
             C         C/B   Am
What if our love never went away?
         G   F                     C      Dm
What if it's lost behind words we could never find?
         C            F
Baby, before it's too late,

           Dm
what about now
                Am
Now that we're here,
                C
Now that we've come this far,
      Em
Just hold on.
Dm                      Am
   There is nothing to fear,
          F
For I am right beside you.
    Dm
For all my life,
      Am
I am yours.

            Am
What about now?
              C
What about today?
               F                  C      Dm
What if you're making me all that I was meant to be?
             Am               C
What if our love never went away?
              F                          G
What if it's lost behind words we could never find?

           C
   What about now?
     C/B      Am
What about today?
           G   F                  C      Dm
What if you're making me all that I was meant to be?
             C         C/B   Am
What if our love never went away?
         G   F                     C      Dm
What if it's lost behind words we could never find?
         C            F
Baby, before it's too late,(3)

What about now?

--it's agreat song to learn and play, the beat is quite easy, so enjoy!--
Suggest correction
Creating personal tab
Creating personal tab
You can edit any tab online and save it as your Personal.

You can edit, replace or remove any tab part or add personal notes – all changes will be seen only by you.

Personal tabs can be accessed anytime from any device, even offline.
Learn more »
comments
print report bad tab
3 comments total.
0 reply
Clifford_TBRD 10 Mar 31, 2010 07:17 AM

very nice, good chord changes, however this is in 1/2 step down tuning, not standard or capo 1st.
some chord changes can be skimmed over, i notice when they play it live there's not nearly as many as this, though it sounds fine with it. its just whatever floats your boat.

0 reply
phe..! \m/ 72 Jul 30, 2010 06:33 PM

yeaaah i know,dumb me,i think i tune the guitar a bit too down,so when i use capo,it's 1/2 step down tuning from standard tuning,ah damn

0 reply
BeardedMIchael 165 Jun 12, 2012 07:08 AM

Cool!It sounds better than the usual version.I think intro should be like this
|-----------------------------------------------------------
|----------1p0----------------------------------------------
|--------2--------2-----------------------------------------
|------2--------2------2------------------------------------
|----0---------------0---0--5p3-2h3-------------------------
|-----------------------------------------------------------

|-----------------------------------------------------------
|----------1p0----------------3p1--0-1----------------------
|--------2--------2------0--------------------------------
|------2--------2------0---0-------------------------------
|----0---------------3--------------------------------------
|-----------------------------------------------------------

guest
You may want to rate the tab now too:
select rating
Wanna post a correction for this tab? Suggest correction