Oops, an error
Loading. Please wait.

Bottle Blues bass

version 1
version 1

Whole song

Interactive

73 views 1 this week
no commentswrite comment
1 2 3 4 5
3 more votes to show rating
add to favorites
×
Save as Personal and add changes to this tab that will be seen only by you. Learn more ›
×
You can save this tab as Personal to edit and correct it or add notes. All changes will be seen only by you. Learn more »
launch autoscroll
font size
0
reset
guitar tuner
edit
Autoscroll
slow
fast
+/-
esc
set tempo
stop
-------------------------------------------------------------------------------
                             BOTTLE BLUES - Chris Duarte
-------------------------------------------------------------------------------


Tabbed by: Isaias Garcia (TexasFury)

Tuning: Half-step down


      Intro                                                                      
      Q.     Q    E    Q.     Q      E     Q.     Q    E    Q.     E  E  E   
F#||------------------------------------|-----------------------------------|
C#||--------------------------5----5g7--|--------------------------7--------|
G#||--------------5--5g7----------------|--------------5--5g7---------7--6--|
D#||--5------L--------------------------|--5------L-------------------------|


              |-3-|        |-3|           
  Q.     Q    E   S   Q    E  S E  E  E   
-----------------------------------------|
-----------------------------------------|
--5------L----------3g5----L--x-5--3--2--|
--------------3h--5----------------------|


                     |-3| |-3|           
  Q.     E  E  E  E  E  S E  S E  E  E   
----------------------------------------|
------------------5--L----7----7--------|
------------5--7--------7----7----5--6--|
--5------L------------------------------|


            |-3-| |-3-|                    
  Q.     E  E   S E   S Q.     E  E    E   
------------------------------------------|
------------------------------------------|
--7------L--------5h--7-------------------|
------------5h--7-------0------L--3--5g7--|


                 |-3|                    
  Q.     E    E  E  S Q    E  Q      E   
---------------------------5------------||
-----------------5----7-------7---------||
------------5g7-----7--------------5g7--||
--5------L------------------------------||


  Verse 1                                     
                 |-3|           |-3|     
  Q.     E    E  E  S Q.     E  E  S E   
----------------------------------------|
-----------------5----7-----------------|
------------5g7-----7--------7--L--x-3--|
--5------L------------------------------|


                 |-3|      |-3|             
  Q.     E    E  E  S Q    E  S   E  E  E   
-------------------------------------------|
-----------------5----7----L---------------|
------------5g7-----7----------------3-----|
--5------L--------------------0-3g5-----5--|


                        |-3|      |-3| |-3|  
  Q.     Q      E  Q    E  S   E  E  S E  S  
--------------------------------------------|
----------------------------------5----5----|
--5------L---------5----L--0-5g7-----7----7-|
--------------3g5---------------------------|


            |-3|           |-3|           
  Q.     E  E  S   E  Q    E  S E  E  E   
-----------------------------------------|
----------------------5----L--x-7--------|
-----------------5g7---------------3--5--|
--5------L--L--x-------------------------|


            |-3|           |-3| |-3|    |-3-|  
  Q.     E  E  S S  S Q    E  S E  S E  E   S  
----------------------------------------------|
----------------------------------------------|
--7------L--L-------------------7----5--3p--2-|
---------------0-5h-7-0----L--7----0----------|


                        |-3|                                          |-3|     
  Q.     Q    S  S Q    E  S E  E    E     Q.     Q    S  S Q.     E  E  S E   
----------------------------------------|-------------------------------------|
-------------------5----L----7--5-------|-------------------5------7--L--5----|
--------------5h-7---------7-------5g7--|--------------5h-7----------------7--|
--5------L------------------------------|--5------L---------------------------|


                     |-3|               
  Q.     E  E  E  E  E  S E   E  E  E   
---------------------------------------|
------------------5--L----9b--7--------|
------------5--7--------7--------7-----|
--5------L--------------------------5--|


                         |-3|         |-3|                                     
  Q.     E  E  E    Q    E  S   E  E  E  S    Q.     E  E  E  Q.     E  E  E   
-------------------------------------------|----------------------------------|
-----------------------------------5--7----|------------------5------7--------|
--5------L--------3g5----L--0-5g7--------7-|------------5--7------------3--5--|
------------3--5---------------------------|--5------L------------------------|


                          |-3|           
    Q.     Q      E  Q    E  S E  E  E   
----------------------------------------|
----------------------------------------|
--5g7------L-------------------7--------|
----------------5g7--0----L--7----7--6--|


                      |-3|                
  Q.     Q    S  S E  E  S   E  E  E  E   
-----------------------------------------||
-------------------5--L----7g9--7--------||
--------------5h-7-------7---------7--6--||
--5------L-------------------------------||


  Bridge                                         
            |-3|           |-3|             
  Q.     E  E  S S  S Q    E  S   E  E  E   
-------------------------------------------|
-------------------------------------------|
--5------L--L---------5----L--0-5g7--5--3--|
---------------x-3s-5----------------------|


                 |-3|                      
  Q.     E    E  E  S Q.       E  E  S  S  
------------------------------------------|
-----------------5----7-------------------|
------------5g7-----7--------5g7--0--3p-0-|
--5------L--------------------------------|


            |-3|           |-3|         |-3|  
  Q.     E  E  S S  S Q    E  S   E  E  E  S  
---------------------------------------------|
-------------------------------------5--7----|
--5------L--L---------5----L--0-5g7--------7-|
---------------x-3s-5------------------------|


                      |-3|              
  Q.     Q    S  S E  E  S E  E  E  E   
---------------------------------------|
-------------------5--L----9--7--------|
--------------5h-7-------7-------7--6--|
--5------L-----------------------------|


            |-3|           |-3|         |-3|  
  Q.     E  E  S S  S Q    E  S   E  E  E  S  
---------------------------------------------|
-------------------------------------5--7----|
--5------L--L---------5----L--0-5g7--------7-|
---------------x-3s-5------------------------|


                        |-3|                                                  
  Q.     Q      E  Q    E  S E  E  E     Q.     E    E  E  Q.       E  E  E   
--------------------------------------|--------------------------------------|
-------------------5----L----7--------|-----------------7--9-----------------|
--------------5g7----------7----------|------------7g9------------7g9--------|
--5------L----------------------5--6--|--7------L----------------------7--7--|


                                          Guitar Solo 1                                    
                                 |-3|                                 |-3|     
  Q    E  Q    S  S Q.     E  E  E  S     Q.     Q      E  Q.       E  E  S E   
--------------------------------------||---------------------------------------|
--------------------------------------||-------------------5------5g7--L--5----|
--------------------7------L----------||--------------5g7-------------------7--|
--0----0--0----5h-7-----------0--3--0-||--5------L-----------------------------|


                        |-3|           
  Q.     Q      E  Q    E  S E  E  E   
--------------------------------------|
-------------------5----L----7--------|
--------------5g7----------7----3--0--|
--5------L----------------------------|


                        |-3|         |-3|                                      
  Q.     Q      E  Q    E  S   E  E  E  S    Q.     Q      E  Q.     E  E  E   
-------------------5----L----5g7--5-------|-----------------------------------|
--------------5g7----------7---------7----|-------------------5------7--------|
--5------L------------------------------7-|--------------5g7------------3--5--|
------------------------------------------|--5------L-------------------------|


                      |-3|                                  |-3|               
  Q.     Q    E  Q    E  S E   E  E     Q.     Q    S  S E  E  S  E  E  E  E   
-------------------------------------|----------------------------------------|
-------------------------------------|-------------------5--L-----------------|
--7------L-------7----L----7\--3--2--|--------------5h-7-------3~-L--5--6--7--|
--------------7----------7-----------|--5------L------------------------------|


                                                          |-3| |-3|           
  Q.     Q    S  S Q.     E  E  E     Q.     Q    S  S E  E  S E  S E  E  E   
-----------------------------------|-----------------------------------------|
-------------------5------7--5-----|-------------------5--L----9----7--------|
--------------5h-7--------------7--|--------------5h-7-------7----7----7--6--|
--5------L-------------------------|--5------L-------------------------------|


            |-3|           |-3|                                               
  Q.     E  E  S S  S Q    E  S E  E  E     Q.     Q      E  Q.     E  E  E   
-----------------------------------------|-----------------------------------|
-----------------------------------------|-------------------5------7--------|
--5------L--L---------3----L--x-5--6--7--|--------------5g7------------3--5--|
---------------x-3h-5--------------------|--5------L-------------------------|


  Q.     E  S  S S S Q      E  E  E  S  S  
------------------------------------------|
------------------------------------------|
--7------L-------5-------------7--5--3p-2-|
------------5h-7---7-0----5g7-------------|


                             |-3-|        
  Q.     E    E  E  E  E  E  E   S E  E   
-----------------------------------------|
------------5g7--7-----------------------|
--------------------0--0--0--3p--0-7--6--|
--5------L-------------------------------|


            |-3|                                               |-3|           
  Q.     E  E  S S  S Q.     E  E  E     Q.     Q      E  Q    E  S E  E  E   
--------------------------------------|--------------------------------------|
--------------------------------------|-------------------5----L----7--------|
--5------L--L---------3------5--6--7--|--------------5g7----------7----7--6--|
---------------0-3h-5-----------------|--5------L----------------------------|


            |-3|         |-3|                
  Q.     E  E  S S  S E  E  S   E  E  E  E   
--------------------------------------------|
--------------------------------------------|
--5------L--L---------3--L--x-5g7--5--3--2--|
---------------x-3h-5-----------------------|


  Q.     Q      E  Q.     E  E  E   
-----------------------------------|
-------------------5------7--------|
--------------5g7------------7--6--|
--5------L-------------------------|


            |-3|           |-3|         |-3|  
  Q.     E  E  S S  S Q    E  S   E  E  E  S  
---------------------------------------------|
-------------------------------------5--7----|
--5------L--L---------5----L--x-5g7--------7-|
---------------x-3h-5------------------------|


            |-3|         |-3| |-3|           
  Q.     E  E  S S  S E  E  S E  S E  E  E   
--------------------------------------------|
----------------------5--L----9----7--------|
-----------------5h-7-------7----7----5--6--|
--5------L--L--5----------------------------|


                      |-3|                 
  E  E  E  E  E  S  S E  S E  E  E  E  E   
------------------------------------------|
----------------------9----9--9-----------|
-----------------7s-9----9-------9--------|
--7--7--7--7--7---------------------7--7--|


                                          Verse 2                                  
                                 |-3|                                        
  E  E  E  E  E  E  Q.     E  E  E  S     Q.     Q    S  S Q.       E  E  E   
--------------------------------------||-------------------------------------|
--------------------------------------||-------------------5------5g7--5-----|
--------------------------------------||--------------5h-7----------------7--|
--0--0--0--0--0--0--0------L--3--4--0-||--5------L---------------------------|


  Q.     Q    S  S Q.     E  E  E   
-----------------------------------|
-------------------5------7--------|
--------------5h-7-----------7--6--|
--5------L-------------------------|


            |-3|           |-3| |-3| |-3|     
  Q.     E  E  S S  S Q    E  S E  S E  S E   
---------------------------------------------|
---------------------------------------------|
--5------L--L---------3----L--0-5----6----7--|
---------------0-3h-5--------------5----6----|


  Q.     Q    S  S Q.     E  E  E       Q.     Q    S  S Q      E  E  E  E   
-----------------------------------|----------------------------------------|
-------------------5------7--------|----------------------------------------|
--------------5h-7-----------3--5--|--5g7------L-------------------7--3--2--|
--5------L-------------------------|----------------5h-7-0----5g7-----------|


                                        Guitar Solo 2                                  
  Q.     Q    S  S Q    E  E  E  E      Q.     Q    S  S Q.       E  E  E   
------------------------------------||-------------------------------------|
-------------------5----7-----------||-------------------5------5g7--5-----|
--------------5h-7---------3--5--7--||--------------5h-7----------------3--|
--5------L--------------------------||--5------L---------------------------|


                                                             |-3| |-3|     
  Q.     Q    S  S Q.     E  E  E     Q.     E  E  E  Q.     E  S E  S E   
-----------------------------------|--------------------------------------|
-------------------5------7--------|--------------------------------------|
--------------5h-7-----------7--6--|--5------L--------3------5----6----7--|
--5------L-------------------------|------------3--5------------5----6----|


                     |-3|              
  Q.     E  E  E  E  E  S E  E  E  E   
--------------------------------------|
------------------5--L----5--7--------|
------------5--7--------7-------5--6--|
--5------L----------------------------|


                 |-3|                     
  Q.     E  S  S E  S Q      E  E  E  E   
-----------------------------------------|
-----------------------------------------|
--7------L-------5--------------7--------|
------------5s-7----7-0----5g7-----7--6--|


            |-3|                                                             
  Q.     E  E  S E  E  E  E  E  E  E     Q.     Q    S  S Q.       E  E  E   
--------------------------------------|-------------------------------------|
--------------------------------5--7--|-------------------5------5g7--5-----|
------------3--3-L--5--5--6--7--------|--------------5h-7----------------7--|
--5------5----------------------------|--5------L---------------------------|


                             |-3| |-3|  
  Q.     Q    S  S Q.     E  E  S E  S  
---------------------------------------|
-------------------5------7------------|
--------------5h-7-----------3----4----|
--5------L----------------------4----5-|


  Q.     Q    S  S Q      E  E    E  E     Q.     Q      E  Q.     E  E  E   
-------------------5--------------------|-----------------------------------|
--------------5h-7------5g7--5----------|-------------------5------7--------|
--5------L----------------------5g7--3--|--------------5g7------------5--6--|
----------------------------------------|--5------L-------------------------|


                        |-3|                                        
  Q.     Q    S  S Q    E  S E  E  E     Q    E  E  E  E  E  E  E   
--------------------------------------|----------------------------|
--------------------------------------|----------------------5-----|
--7------L---------7----L----7--5--3--|-------3--3--5--6--7-----7--|
--------------5h-7---------7----------|--5-------------------------|


     TP TP TP   TP TP                                                    
  E  E  E  Q    E  Q.        H.           Q.        Q.     H.            
--------------------------|----------------------|----------------------|
--------7-------7---------|----------------------|----------------------|
--------------------------|----------------------|----------------------|
--5--5-----5-------5------|--5------------L------|--L------5------------|


  Q.     H.             
----------------------||
----------------------||
----------------------||
--5-------------------||




Duration Legend
---------------
W - whole
H - half
Q - quarter
E - 8th
S - 16th
. - note dotted


Tablature Legend
----------------
L - tied note
x - dead note
g - grace note
(n) - ghost note
h - hammer on
p - pull off
b - bend
S - shift slide
/ -  slide into from below or out of upwards
\ -  slide into from above or out of downwards
~ - vibrato
TP - tremolo picking


Get my other tabs for Guitar Pro, Powertab, guitar/bass text and chords at
http://profile.ultimate-guitar.com/TexasFury/contributions/

            
            
Suggest correction
Creating personal tab
Creating personal tab
You can edit any tab online and save it as your Personal.

You can edit, replace or remove any tab part or add personal notes – all changes will be seen only by you.

Personal tabs can be accessed anytime from any device, even offline.
Learn more »
Give kudos to tab author, rate the tab!
1 2 3 4 5
comments
print report bad tab
guest
You may want to rate the tab now too:
select rating
Wanna post a correction for this tab? Suggest correction