Oops, an error
Loading. Please wait.

What Can I Do tab

version 1
version 1

Whole song

Interactive

165 views 1 this week
no commentswrite comment
1 2 3 4 5
3 more votes to show rating
add to favorites
×
Save as Personal and add changes to this tab that will be seen only by you. Learn more ›
×
You can save this tab as Personal to edit and correct it or add notes. All changes will be seen only by you. Learn more »
launch autoscroll
font size
0
reset
how to read this tab
guitar tuner
edit
Autoscroll
slow
fast
+/-
esc
set tempo
stop
-------------------------------------------------------------------------------
                             WHAT CAN I DO - Chris Duarte
-------------------------------------------------------------------------------


Tabbed by: Isaias Garcia (TexasFury)

Tuning: Half-step down


      Intro                                     
      |---3--|  |--3--|  |--3--|  |--3--|   
      E   E  E  E  E  E  E  E  E  E  E  E   
D#||--8s--9--9--9--9--9--9--9--9--9--9--9--|
A#||--7s--8--8--8--8--8--8--8--8--8--8--8--|
F#||--8s--9--9--9--9--9--9--9--9--9--9--9--|
C#||---------------------------------------|
G#||---------------------------------------|
D#||---------------------------------------|


  |---3--|  |--3--|  |-3|  |3|  |--3--|    
  E   E  E  E  E  E  E  S  S E  E  E  E    
--8s--9--9--9--9--------------------------|
--7s--8--8--8--8--8--8--------------------|
--8s--9--9--9--9--9--9--------------------|
------------------------------------------|
-----------------------------0-----0--3/--|
------------------------0h-3----3---------|


  ^                                                                     
          |---3--|  |--3--|  |--3--|     |--3--|                        
  E   E   E   E  E  E  E  E  E  E  E     E  E  E  E  E   E  E  E   E    
----------8s--9--9--9--9--9--9--9--9--|--9--------8--7~--L-----7-------||
----------7s--8--8--8--8--8--8--8--8--|--8--------8--7~--L-----7--(0)--||
----------8s--9--9--9--9--9--9--9--9--|--9--------8--7~--L-----7--(0)--||
-----(0)------------------------------|---------------------------(0)--||
--0--(0)------------------------------|-----------8--7---L-----7-------||
-----(0)------------------------------|-----0--0------------0----------||


  Verse 1                                                          
  E  E  E   E   E  E  E   E      E  E  E   E   E  E  E   E    
------------------------------|------------------------------|
-----------(0)-----------(0)--|-----------(0)-----------(0)--|
-----------(0)-----------(0)--|-----------(0)-----------(0)--|
--2--2--4--(0)--2--2--4--(0)--|--2--2--4--(0)--2--2--4--(0)--|
--0--0--0-------0--0--0-------|--0--0--0-------0--0--0-------|
------------------------------|------------------------------|


  E  E  E   E   E  E  E   E      E  E  E   E   E  E  E   E    
------------------------------|------------------------------|
-----------(0)-----------(0)--|-----------(0)-----------(0)--|
-----------(0)-----------(0)--|-----------(0)-----------(0)--|
--2--2--4--(0)--2--2--4--(0)--|--2--2--4--(0)--2--2--4--(0)--|
--0--0--0-------0--0--0-------|--0--0--0-------0--0--0-------|
------------------------------|------------------------------|


  E  E  E   E   E  E  E   E      E  E  E   E   E  E  E   E    
------------------------------|------------------------------|
-----------(0)----------------|------------------------------|
-----------(0)-----------(0)--|-----------(0)-----------(0)--|
--2--2--4--(0)--2--2--4--(0)--|--2--2--4--(0)--2--2--4--(0)--|
--0--0--0-------0--0--0-------|--0--0--0-------0--0--0-------|
------------------------------|------------------------------|


  E  E  E   E   E  E  E   E      E  E  E   E   E  E  E   E    
------------------------------|------------------------------|
-----------(0)-----------(0)--|-----------(0)-----------(0)--|
-----------(0)-----------(0)--|-----------(0)-----------(0)--|
--2--2--4--(0)--2--2--4--(0)--|--2--2--4--(0)--2--2--4--(0)--|
--0--0--0-------0--0--0-------|--0--0--0-------0--0--0-------|
------------------------------|------------------------------|


                       |---3--|                                  
  E  E  E   E    E  E  E  E   E       E  E  E  E  E  E  E   E    
---------------------------------|------------------------------|
---------------------------------|-------------------------(0)--|
--2--2--4p--0--4g5--4--2--4p--0--|--4g5--5--4--4--2--2--4--(0)--|
--0--0--0---0----0--0--0--0------|----0--0--0--0--0--0--0--(0)--|
---------------------------------|------------------------------|
---------------------------------|------------------------------|


  E  E  E  E  E  E  E   E      E  E  E  E  E  E  E   E    
--------3-------------------|----------------------------|
--------2--------------(0)--|-----------------------(0)--|
--------2--------------(0)--|-----------------------(0)--|
--2--2--------2--2--4--(0)--|--2--2--4--4--2--2--4--(0)--|
--0--0-----0--0--0--0-------|--0--0--0--0--0--0--0-------|
----------------------------|----------------------------|


                    |---3---|                                  
  E  E  E  E  E  E  E  E    E     E  E  E   E   E  E  E   E    
--------------0--0-----0-------|------------------------------|
--------0----------------------|-----------(0)-----------(0)--|
-------------------------------|--2--2--4--(0)--2--2--4--(0)--|
-------------------------------|--0--0--0--(0)--0--0--0--(0)--|
--2--2-----2--------2----------|------------------------------|
--0--0-----0--------0-----2g3--|------------------------------|


        3    |3|  |---3--|  |--3--|            |--3--|                 
  E  E  E.   S E  E   E  E  E  E  E      E  E  E  E  E  E  E  E   E    
--------------------------------------|-----0--L-----------0--L-------||
--------------------------------------|--------------------0--L--(0)--||
-----2---------2----------------------|--------------------------(0)--||
--2--2-------2-2--4h--5--4--2---------|--------------------------(0)--||
--0-----3b-----0--0---L--0--0--3--3b--|--0----------------------------||
--------------------------------------|-----------3--2--0-------------||


  Verse 2                                                          
  E  E  E   E   E  E  E   E      E  E  E   E   E  E  E   E    
------------------------------|------------------------------|
-----------(0)-----------(0)--|-------------------------(0)--|
-----------(0)-----------(0)--|-----------(0)-----------(0)--|
--2--2--4--(0)--2--2--4--(0)--|--2--2--4--(0)--2--2--4--(0)--|
--0--0--0-------0--0--0-------|--0--0--0-------0--0--0-------|
------------------------------|------------------------------|


  E  E  E   E   E  E  E   E      E  E  E   E   E  E  E   E    
------------------------------|------------------------------|
-----------(0)----------------|-----------(0)----------------|
-----------(0)-----------(0)--|-----------(0)-----------(0)--|
--2--2--4--(0)--2--2--4--(0)--|--2--2--4--(0)--2--2--4--(0)--|
--0--0--0-------0--0--0-------|--0--0--0-------0--0--0-------|
------------------------------|------------------------------|


                        |--3--|           |--3--|                 
  E   E   E   E   E  E  E  E  E     E  E  E  E  E  E  E  E   E    
----------3-------3--------------|-----3-----3-----3--3----------|
-----(0)--2-------2--------------|-----2-----2-----2--2-----(0)--|
-----(0)--2--(0)--2--------------|-----2--0--2--0--2--2-----(0)--|
--2--(0)-----(0)-----4--4--2--0--|--2-----0-----0--------4--(0)--|
--0------------------0--0--0--0--|--0--------------------0-------|
---------------------------------|-------------------------------|


                                       |-3-|                    
  E  E  E   E   E  E  E   E      E  E  E   Q     E  E  E   E    
------------------------------|--------------------------------|
-------------------------(0)--|-----------(0)-------------(0)--|
-----------(0)-----------(0)--|-----------(0)-------------(0)--|
--2--2--4--(0)--2--2--4--(0)--|--2--2--4--(0)----2--2--4--(0)--|
--0--0--0-------0--0--0-------|--0--0--0---------0--0--0-------|
------------------------------|--------------------------------|


                      |--3--|                                  
  E  E  E  E    E  E  E  E  E       E  E  E  E  E  E  E   E    
-------------------------------|------------------------------|
-------------------------------|-------------------------(0)--|
--2--2--4--0--4g5--4--2--4--0--|--4g5--5--4--4--2--2--4--(0)--|
--0--0--0--0----0--0--0--0--0--|----0--0--0--0--0--0--0--(0)--|
-------------------------------|------------------------------|
-------------------------------|------------------------------|


  E  E  E  E  E  E  E   E      E  E  E   E   E  E  E   E    
--------3-----3-------------|------------------------------|
--------2-----2--------(0)--|-----------(0)----------------|
-----0--2--0--2--------(0)--|-----------(0)-----------(0)--|
--2--0-----0-----2--4--(0)--|--2--2--4--(0)--2--2--4--(0)--|
--0--------0-----0--0-------|--0--0--0-------0--0--0-------|
----------------------------|------------------------------|


                    |--3--|                                
  E  E  E  E  E  E  E  E  E     E  E  E  E  E  E  E   E    
--------0-----0-----0-----0--|----------------------------|
--------0-----0-----0-----0--|-----------------------(0)--|
-----------------------------|--2--2--4--2--2--2--4--(0)--|
-----------------------------|--0--0--0--0--0--0--0--(0)--|
--2--2-----2-----2-----------|----------------------------|
--0--0-----0-----0-----0-----|----------------------------|


                |--3--|  |--3--|            |--3--|        |---3--|   
  E  E    E  E  E  E  E  E  E  E      E  E  E  E  E  E  E  E  E   E   
-----------------------------------|-----0--L-----------0--L---------||
-----------------------------------|-----0--L-----------0--L---------||
-------------------2---------------|--------------------------7b--7--||
--2-----4g5--5--4--2--------2------|---------------------------------||
--0--0----0--0--0--0--3--4--0--3b--|--0------------------------------||
-----------------------------------|-----------3--2--0---------------||


  Guitar Solo                                                                
                     |---3--|                          |---3--|    
  Q     E  E  E  E   E  E   E      Q     E  E    Q     E  E   E    
------------------------5-------|-------------------------5-------|
------------------------5-------|--8b----8--8b~--Lb----5------5---|
--5~----------------------------|----------------------------(0)--|
--------7-----5--7~--L-----(0)--|----------------------------(0)--|
-----------7---------------(0)--|---------------------------------|
--------------------------------|---------------------------------|


                      |--3--|     |---3--|   3    |3|          |--3--|   
  Q     E   E   Q     E  E  E     E   E  E   E.   S E  E   E   E  E  E   
-------------------------------|-------------------------------------5--|
--8b----Lb--Lb-----------------|----------------------------------5-----|
----------------5~----L--------|--5h--7--Lb--Lb---5----5~--7b--L--------|
-------------------------7--7--|--------------------7-------------------|
-------------------------------|----------------------------------------|
-------------------------------|----------------------------------------|


             |-3|     |--3--|           |--3--|        |--3--|    
   H         E  Q     E  E  E     Q     E  E  E  Q     E  E  E    
---8b--------L--8b----5-----8--|--5~----L-----------------5------|
-------------------------5-----|-----------8-----------5-----8b--|
-------------------------------|-----------7--7--Lb--------------|
-------------------------------|---------------------------------|
-------------------------------|---------------------------------|
-------------------------------|---------------------------------|


  |---3--|  |-3|   |3|           |---3---|    
  E  E   E  E  S   S E   E   E   E   E   E    
--5---------8--------8--10---Lb--8--10--10b--|
---------5-----8s-10-------------------------|
-----7b--------------------------------------|
---------------------------------------------|
---------------------------------------------|
---------------------------------------------|


       |--3--| |--3--|                              |-3-|      3    |--|   
  E    S  S  S E  E  E  Q.      E      Q      Q     E   Q      E.   S  E   
--8~-----------5-----8--Lb---------|--10b----10b-------10b-----Lb---8-----|
------10p-8s-5----5--8--Lb---------|--10b----10b----------------------10--|
-----------------------------------|--------------------------------------|
-----------------------------------|--------------------------------------|
-----------------------------------|--------------------------------------|
-----------------------------------|--------------------------------------|


  |---3---|        |--3--| |--3--|   3    |3|   
  E   E   E   E    S  S  S E  E  E   E.   S E   
--8--10--10b--8~-----------5-------------------|
------------------10p-8s-5----------------5----|
------------------------------7--Lb--Lb---5----|
--------------------------------------------7--|
-----------------------------------------------|
-----------------------------------------------|


         |--3--|  |---3---|   |---3--|            |--3--|              
  E  E   E  E  E  E    E  E   E  E   E     E   E  E  E  E  E  E  Q     
--5------------5-----7g5------5---------|---------------------0--L----||
--5---------5-----5-------8b------------|---------------------0--L----||
-----7b--L-----------------------7b--7--|--5~--0--L-------------------||
----------------------------------------|------------7--7-------------||
----------------------------------------|-----------------------------||
----------------------------------------|------------------0----------||


   GS2                                  
                           3    |--|    
   E    E   Q      Q       E.   S  E    
--10b--10b--------10b-----10p---8------|
--10b--10b-------(10)b------------10~--|
---------------------------------------|
---------------------------------------|
---------------------------------------|
---------------------------------------|


           |---3--|              |----3---|   
   E    E  E   E  E   E    E     E    E   E   
-----------8------8--10b--10b~---Lb~--8------|
--10~--10-----10-------------------------10--|
---------------------------------------------|
---------------------------------------------|
---------------------------------------------|
---------------------------------------------|


                 |--3-|      |-3-|         |------3------|     |-3-|           
   E    E   Q    E    Q      E   Q         Q      Q      Q     E   Q     Q     
--10b--10b--8----Lb--10b----10p--8b----|--10b----10b----10b----8--10b----L----|
---------------------10b----10p--8b----|--10b----10b----10-----8--10b----L----|
---------------------------------------|--------------------------------------|
---------------------------------------|--------------------------------------|
---------------------------------------|--------------------------------------|
---------------------------------------|--------------------------------------|


  |---3--|              |------|  |3|          
  S  S   Q      E    E  E      S  S E  E   E   
------------------------8b----------5---------|
--8-10~--L~----10~--10------10g8s-5--------5--|
---------------------------------------7b-----|
----------------------------------------------|
----------------------------------------------|
----------------------------------------------|


  |--3--|   |---3--|  |---3---|   |---3---|   
  E  E  E   E  E   E  E  E    E   E   E   E   
--5---------5---------5----------17------17--|
-----5--8b--5------5---------17------17------|
---------------7b--------7/------------------|
---------------------------------------------|
---------------------------------------------|
---------------------------------------------|


                      |---3---|   |---3---|   
   E    E    E   E    E   E   E   E   E   E   
--20b--20b--20--20b--17------17------17------|
-------------------------17------20------17--|
---------------------------------------------|
---------------------------------------------|
---------------------------------------------|
---------------------------------------------|


   |---3--|      |---3---|          |---3---|   
   S   S  Q      E   E   E   Q      E   E   E   
--17h-20-17~-----------------------17------17--|
----------------20--17--20---Lb--------17------|
-----------------------------------------------|
-----------------------------------------------|
-----------------------------------------------|
-----------------------------------------------|


            |---3--|         |-3|               |--3--|         |--3--|   
   E    E   E  E   E   Q     E  Q         Q     E  E  E  E   E  E  E  E   
---------------5-------8b----L--9b----|--10b----5-----5---------5-----8--|
--20\-------5-------------------------|------------5---------5-----5-----|
-------(0)--------(0)-----------------|------------------7b--------------|
-------(0)--------(0)-----------------|----------------------------------|
--------------------------------------|----------------------------------|
--------------------------------------|----------------------------------|


          |--3--|  |-3|     |--3--|           |---3--|                 
  E   E   E  E  E  E  Q     E  E  E     E  E  E  E   E  E  E  E   E    
--5~------------5--8-----------------|-----0--L------------0--L-------||
-------------5-----8-----------------|---------------------0--L-------||
------7b--L-----------7b----7--5-----|---------------------------(0)--||
----------------------------------7--|---------------------------(0)--||
-------------------------------------|--0--------5h--7----------------||
-------------------------------------|------------------0-------------||


  Verse 3                                                          
  E  E  E   E   E  E  E   E      E  E  E   E   E  E  E   E    
------------------------------|------------------------------|
-----------(0)-----------(0)--|-----------(0)----------------|
-----------(0)-----------(0)--|-----------(0)-----------(0)--|
--2--2--4--(0)--2--2--4--(0)--|--2--2--4--(0)--2--2--4--(0)--|
--0--0--0-------0--0--0-------|--0--0--0-------0--0--0-------|
------------------------------|------------------------------|


  E  E  E   E   E  E  E   E      E  E  E   E   E  E  E   E    
------------------------------|------------------------------|
-----------(0)----------------|-----------(0)----------------|
-----------(0)-----------(0)--|-----------(0)-----------(0)--|
--2--2--4--(0)--2--2--4--(0)--|--2--2--4--(0)--2--2--4--(0)--|
--0--0--0-------0--0--0-------|--0--0--0-------0--0--0-------|
------------------------------|------------------------------|


                                           |--3--|                 
  E   E   E   E   E   E   E   E      E  E  E  E  E  E  E  E   E    
----------3-------3---------------|-----------3-----3--3----------|
-----(0)--2-------2----------(0)--|-----------2-----2--2-----(0)--|
-----(0)--2--(0)--2--(0)-----(0)--|--2--------2-----2--2-----(0)--|
--2--(0)-----(0)-----(0)--4--(0)--|--2--------------------4--(0)--|
--0-----------------------0-------|--0--0--L-----0--------0-------|
----------------------------------|-------------------------------|


                                       |---3---|                 
  E  E  E   E   E  E  E   E      E  E  E   E   E  E  E  E   E    
------------------------------|---------------------------------|
-----------(0)----------------|-----------(0)--------------(0)--|
-----------(0)-----------(0)--|-----------(0)--------------(0)--|
--2--2--4--(0)--2--2--4--(0)--|--2--2--4--(0)--4--2--2--4--(0)--|
--0--0--0-------0--0--0-------|--0--0--0-------0--0--0--0-------|
------------------------------|---------------------------------|


                       |---3--|                                    
  E  E  E   E    E  E  E  E   E       E  E  E  E  E  E    E   E    
---------------------------------|--------------------------------|
---------------------------------|--------------------------------|
--2--2--4p--0--4g5--4--0--4p--0--|--4g5--5--4--4--2--2--2g4--(0)--|
--0--0--0---0----0--0--0--0------|----0--0--0--0--0--0----0--(0)--|
---------------------------------|--------------------------------|
---------------------------------|--------------------------------|


  E  E  E  E  E  E  E   E      E  E  E   E   E  E  E   E    
--------3-----3-------------|------------------------------|
--------2-----2--------(0)--|-------------------------(0)--|
--------2-----2--------(0)--|-----------(0)-----------(0)--|
--2--2-----2-----2--4--(0)--|--2--2--4--(0)--2--2--4--(0)--|
--0--0-----0-----0--0-------|--0--0--0-------0--0--0-------|
----------------------------|------------------------------|


                    |--3--|                          |---3--|    
  E  E  E  E  E  E  E  E  E      E  E  E   E   E  E  E  E   E    
--------0-----0--0-----0------|---------------------------------|
--------0-----0--0-----0------|-----------(0)--------------(0)--|
------------------------------|--2--2--4--(0)--2--2--4--4--(0)--|
------------------------------|--0--0--0--(0)--0--0--0--0--(0)--|
--2--2-----2------------------|---------------------------------|
--0--0-----0--------0-----3b--|---------------------------------|


        3    |3|  |---3--|  |--3--|           |--3--|       |--3--|   
  E  E  E.   S E  E   E  E  E  E  E     E  E  E  E  E  Q    E  E  E   
-------------------------------------|-----0--L----------------------||
-------------------------------------|-------------------------------||
--2------------2---------------------|-------------------------------||
--2----------2-2--4h--5--4-----------|-------------------------------||
--0--0--3b---0----0---L-----0--3--4--|--0----------------------------||
-------------------------------------|-----------3--2--0----0--2--3--||


  Outro                                                                    
        |--3--|  |-3| |3|  |--3--|           |--3--|        |--3--|    
  E  E  E  E  E  E  S S E  E  E  E     E  E  E  E  E  E  E  E  E  E    
-----3-----3-----5------------------|-----3--L-----------0--L---------|
-----2-----2-----5------------------|-----2--L-----------0--L---------|
-----2-----2-----2---------------0--|-----2--L------------------------|
--2------------------------------0--|--2------------------------------|
--0-----0-----0---------------------|--0------------------------------|
--------------------0-0-0--0--2--3--|-----------3--2--0--------2--3b--|


        |--3--|        |---3--|     |---3--|  |--3--|    |--3--|  |--3--|    
  E  E  E  E  E  E  E  E   E  E     E   E  E  E  E  E    E  E  E  E  E  E    
-----3-----3-----5--5------------|--8s--9--9--8--8--8--8g9--9---------------|
-----2-----2-----2--2------------|--7s--8--8--7--7--7--7g8--8---------------|
-----2-----2-----2--2------------|--8s--9--9--8--8--8--8g9--9---------------|
--2------------------------------|------------------------------------------|
--0-----0-----0------------------|------------------------------------------|
-----------------------5/--0--0--|-----------------------------0--0--2--3/--|


                     |--3--|              |--3--|        |--3--|   
  Q    E   E  E   E  E  E  E       E   E  E  E  E  E  E  E  E  E   
-------2p--0--2~--2------------|-------2--2--0--------0--L--------|
-------------------------------|-------------0--------0--L--------|
--2----2p--0--2~--2------------|-------2--2-----------------------|
--0----------------------------|--(0)-----------------------------|
-------------------------------|--(0)-----------------------------|
---------------------0--2--3/--|----------------3--0--------2--3--|


        |--3--|  |-3| |3|  |--3--|           |--3--|         |---3--|   
  E  E  E  E  E  E  S S E  E  E  E     E  E  E  E  E  E  E   E   E  E   
-----3-----3-----5------------------|-----3-----3-----5--5-------------|
-----2-----2-----5------------------|-----2-----2-----2--2-------------|
-----2-----2-----2------------------|-----2-----2-----2--2-------------|
--2---------------------------------|--2--------------------(0)--------|
--0-----0-----0---------------------|--0-----0-----0--------(0)--------|
--------------------0-0-0--0--2--3--|----------------------------0--0--|


    |--3--|    |--3--|    |--3--|    |--3--|   
    E  E  E    E  E  E    E  E  E    E  E  E   
--3g4--4--4--3g4--4--4--3g4--4--4--3g4--4--3--|
--2g3--3--3--2g3--3--3--2g3--3--3--2g3--3--2--|
--3g4--4--4--3g4--4--4--3g4--4--4--3g4--4--3--|
----------------------------------------------|
----------------------------------------------|
----------------------------------------------|


    |--3--|    |--3--|    |---3--|  |---3---|   
    E  E  E    E  E  E    E  E   E  E   E   E   
--1g2--2--2--1g2--2--2--1g2--2---4--2s--4s--2--|
--0g1--1--1--0g1--1--1--0g1--1s--3--1s--3s--1--|
--1g2--2--2--1g2--2--2--1g2--2s--4--2s--4s--2--|
-----------------------------------------------|
-----------------------------------------------|
-----------------------------------------------|


  |--3--|  |--3--|   |---3---|   |---3---|      |---3--|                        
  E  E  E  E  E  E   E   E   E   E   E   E      E  E   E    E   E  Q     Q      
-----8--9--8--9-----14--14--14--13--13--13--|--12----------13--12-------12-----|
-----7--8--7--8-----14--14--14--13--13--13--|--12----------13--12-------12~----|
-----8--9--8--9-----14--14--14--13--13--13--|--12-----(0)--13--12-------12~----|
--------------------------------------------|---------(0)----------------------|
--0--------------0--14--14--14--13--13--13--|--12--0-------13--12-------12-----|
--------------------------------------------|----------------------------------|


           |--3--|        |--3--|                                            
   S   S   S  S  S  S  S  S  S  S S S S  S  Q.         H.            Q.      
--10h-11p-10s-8----10p-8----------5-----------------|---------------17------|
----------------10-------10p-8s-5---5---------------|-----------------------|
--------------------------------------7b-Lb-5b------|-----------------------|
----------------------------------------------------|-----------------------|
----------------------------------------------------|--0--------------------|
----------------------------------------------------|-----------------------|


       tr                                              
  Q    E     Q.     Q     E      H.           Q.       
--L----------------------17\--|----------------------||
------------------------------|----------------------||
-------0(2)--L------L---------|----------------------||
------------------------------|----------------------||
------------------------------|----------------------||
------------------------------|----------------------||


Duration Legend
---------------
W - whole
H - half
Q - quarter
E - 8th
S - 16th
. - note dotted
|-n-|  - n-tuplets


Tablature Legend
----------------
L - tied note
g - grace note
> - accentuded note
h - hammer on
p - pull off
b - bend
pb - preBend
pbr - preBendRelease
s - legato slide
/ -  slide into from below or out of upwards
\ -  slide into from above or out of downwards
~ - vibrato
tr - trill


Get my other tabs for Guitar Pro, Powertab, guitar/bass text and chords at
http://profile.ultimate-guitar.com/TexasFury/contributions/

            
            
Suggest correction
Creating personal tab
Creating personal tab
You can edit any tab online and save it as your Personal.

You can edit, replace or remove any tab part or add personal notes – all changes will be seen only by you.

Personal tabs can be accessed anytime from any device, even offline.
Learn more »
Give kudos to tab author, rate the tab!
1 2 3 4 5
comments
print report bad tab
guest
You may want to rate the tab now too:
select rating
Wanna post a correction for this tab? Suggest correction