Oops, an error
Loading. Please wait.

Flowers Tab

70 views 3 this week
no commentswrite comment
1 2 3 4 5
2 more votes to show rating
add to favorites
launch autoscroll
font size
0
reset
how to read this tab
guitar tuner
Autoscroll
slow
fast
+/-
esc
set tempo
stop
Help us to improve Ultimate-Guitar.com Take our survey!
×
Author
Listen to the song for the rhythm etc., the outro is just playing the verse again.

[Intro]

e|-------14-------14-------14-------14-------14-------14-------14-------14-|
B|----15-------15-------15-------15-------15-------15-------15-------14----|
G|-14-------14-------14-------14-------14-------14-------14-------14-------|
D|-------------------------------------------------------------------------|
A|-------------------------------------------------------------------------|
E|-------------------------------------------------------------------------|


[Verse]
e|-------14-------14------15-------15------14-------14-------14-------14---|
B|----15-------15-------15------15------15-------15-------15-------15------|
G|-14-------14-------16------16------14-------14-------16-------16---------|
D|-------------------------------------------------------------------------|
A|-------------------------------------------------------------------------|
E|-------------------------------------------------------------------------|

e|-------15-------15------14-------14------15-------15-------17-------17---|
B|----12-------12-------15------15------12-------12-------14-------14------|
G|-12-------12-------14------14------12-------12-------14-------14---------|
D|-------------------------------------------------------------------------|
A|-------------------------------------------------------------------------|
E|-------------------------------------------------------------------------| (x2)


[Chorus]

e|-14---15---14---15---14----|
B|-15---15---15---12---15----|
G|-16---16---14---12---14----|
D|---------------------------|
A|---------------------------|
E|---------------------------|

e|-14---15---14---17---------|
B|-15---15---15---14---------|
G|-16---16---14---14---------|
D|---------------------------|
A|---------------------------|
E|---------------------------|


[Middle 8]

e|-14--14--------14-------14-------15-------15-------17-------17-------17-------17-|
B|-14--15-----15-------15-------15-------15-------14-------14-------14-------14----|
G|-14--16--14-------14-------16-------16-------14-------14-------14-------14-------|
D|---------------------------------------------------------------------------------|
A|---------------------------------------------------------------------------------|
E|---------------------------------------------------------------------------------|

e|-14--14--14--15--17----|
B|-14--15--15--15--14----|
G|-14--16--14--16--14----|
D|-----------------------|
A|-----------------------|
E|-----------------------|


************************************

| x   Dead note
| g   Grace note
| (n) Ghost note
| h   Hammer-on
| p   Pull-off
| r   Release
| >   Accented note
| t   Tapping
| b   Bend
| br  Bend release
| pb  Pre-bend
| pbr Pre-bend release
| /   Slide up
| \   Slide down
| ~   Vibrato
| s   Slap
| P   Pop
| PM  Palm mute
| TR  Trill
| N   Tremolo

************************************
Suggest correction
Give kudos to tab author, rate the tab!
1 2 3 4 5
comments
print report bad tab
guest
You may want to rate the tab now too:
select rating
Wanna post a correction for this tab? Suggest correction