Oops, an error
Loading. Please wait.

Georgie Tab

1 view 1 this week
no commentswrite comment
1 2 3 4 5
3 more votes to show rating
add to favorites
launch autoscroll
font size
0
reset
how to read this tab
guitar tuner
Autoscroll
slow
fast
+/-
esc
set tempo
stop
Help us to improve Ultimate-Guitar.com Take our survey!
×
Author
Difficulty
Capo
intermediate
3rd fret
Live at The Royal Oak in 2007  - https://www.youtube.com/watch?v=gWtRpESIv30


[Intro]
G          D/F#     Asus4    G
                                   As
e|-----------------|-----------------|
B|-----0h3-3-------|-------3-------0-|
G|-0h2-----2------2|-----2-------0---|
D|-0---0-----------|---2-------0-----|
A|-----------------|-0---------------|
E|-3-------2-------|---------3-------|


[Verse 1]
  D/F# G   A   Bm/A  G         A
   I  crossed  over  London  bridge It was
e|-----------------|-----------------|
B|-3---3---2---3p2-|-----3-------2---|
G|-2---0---2---2---|---0---0---2---2-|
D|-0---0---2---4p2-|-----0-------2---|
A|---------0-------|---------0-------|
E|-2---3-----------|-3---------------|

  Emadd9/B A         Em  C G/B A Bm
   on  one morning   early
e|-----------------|-----------------|
B|-----0-------2---|-----1-0-2-------|
G|---0---0---2---2-|-----0-0-2---3/5-|
D|-----4-------2---|-----2-0-2-2-2p--|
A|-2-------0-------|---2-3-2-0---4/6-|
E|-----------------|-0---------------|

  D        C   G/B   G      D
There I beheld a    fair woman      la-
e|-----2-----------|-------------2---|
B|-----3-------3---|-------------3---|
G|---2---2-----0---|-----0-----2---2-|
D|-0---------2---0-|---0-----0-------|
A|---------3---2---|-----2h4---------|
E|-----------------|-3---------------|

  Emadd9/B D/F#      Asus4   G
  menting  for       Geor-gie
e|-----------------|-----------------|
B|---------------3-|-------3-------2-|
G|---0---0-----2---|-----2-------0---|
D|-----4-----0-----|---2-------0-----|
A|-2---------------|-0---------------|
E|---------2-------|---------3-------|


[Verse 2]
  D/F# G   A   Bm/A  G         A
  Go  fetch me   some little boy, That can 
e|-----------------|-----------------|
B|-3---3---2---3p2-|-----3-------2---|
G|-2---0---2---2---|---0---0---2---2-|
D|-0---0---2---4p2-|-----0-------2---|
A|---------0-------|---------0-------|
E|-2---3-----------|-3---------------|

  Emadd9/B A         Em  C G/B A Bm
   go on an errand   quick-ly      Who
e|-----------------|-----------------|
B|-----0-------2---|-----1-0-2-------|
G|---0---0---2---2-|-----0-0-2---3/5-|
D|-----4-------2---|-----2-0-2-2-2p--|
A|-2-------0-------|---2-3-2-0---4/6-|
E|-----------------|-0---------------|

  D        C   G/B   G      D
  can go ten  miles   in an hour   With a 
e|-----2-----------|-------------2---|
B|-----3-------3---|-------------3---|
G|---2---2-----0---|-----0-----2---2-|
D|-0---------2---0-|---0-----0-------|
A|---------3---2---|-----2h4---------|
E|-----------------|-3---------------|

  Emadd9/B D/F#      Asus4   G
   letter for a     lady?          And 
e|-----------------|-----------------|
B|---------------3-|-------3-------2-|
G|---0---0-----2---|-----2-------0---|
D|-----4-----0-----|---2-------0-----|
A|-2---------------|-0---------------|
E|---------2-------|---------3-------|


[Verse 3]
  D/F# G   A   Bm/A  G         A
 saddle to me  my   milk white steed
e|-----------------|-----------------|
B|-3---3---2---3p2-|-----3-------2---|
G|-2---0---2---2---|---0---0---2---2-|
D|-0---0---2---4p2-|-----0-------2---|
A|---------0-------|---------0-------|
E|-2---3-----------|-3---------------|

  Emadd9/B A         Em  C G/B A Bm
  And bridle him so  rarely     So that
e|-----------------|-----------------|
B|-----0-------2---|-----1-0-2-------|
G|---0---0---2---2-|-----0-0-2---3/5-|
D|-----4-------2---|-----2-0-2-2-2p--|
A|-2-------0-------|---2-3-2-0---4/6-|
E|-----------------|-0---------------|

  D        C   G/B   G      D
   I  may go     to Newcastle jail  To
e|-----2-----------|-------------2---|
B|-----3-------3---|-------------3---|
G|---2---2-----0---|-----0-----2---2-|
D|-0---------2---0-|---0-----0-------|
A|---------3---2---|-----2h4---------|
E|-----------------|-3---------------|

  Emadd9/B D/F#      Asus4   G
plead for the life of Georgie      And
e|-----------------|-----------------|
B|---------------3-|-------3-------2-|
G|---0---0-----2---|-----2-------0---|
D|-----4-----0-----|---2-------0-----|
A|-2---------------|-0---------------|
E|---------2-------|---------3-------|


[Verse 4]
  D/F# G   A   Bm/A  G         A
  when she came to  Newcastle  jail
e|-----------------|-----------------|
B|-3---3---2---3p2-|-----3-------2---|
G|-2---0---2---2---|---0---0---2---2-|
D|-0---0---2---4p2-|-----0-------2---|
A|---------0-------|---------0-------|
E|-2---3-----------|-3---------------|

  Emadd9/B A         Em  C G/B A Bm
 She bowed her head so lowly       And
e|-----------------|-----------------|
B|-----0-------2---|-----1-0-2-------|
G|---0---0---2---2-|-----0-0-2---3/5-|
D|-----4-------2---|-----2-0-2-2-2p--|
A|-2-------0-------|---2-3-2-0---4/6-|
E|-----------------|-0---------------|

  D        C   G/B   G      D
  down on her bended knees she fall  Saying
e|-----2-----------|-------------2---|
B|-----3-------3---|-------------3---|
G|---2---2-----0---|-----0-----2---2-|
D|-0---------2---0-|---0-----0-------|
A|---------3---2---|-----2h4---------|
E|-----------------|-3---------------|

  Emadd9/B D/F#      Asus4   G
spare me the life of Georgie       Oh, 
e|-----------------|-----------------|
B|---------------3-|-------3-------2-|
G|---0---0-----2---|-----2-------0---|
D|-----4-----0-----|---2-------0-----|
A|-2---------------|-0---------------|
E|---------2-------|---------3-------|


[Verse 5]
  D/F# G   A   Bm/A  G         A
 it's no murder    George have done
e|-----------------|-----------------|
B|-3---3---2---3p2-|-----3-------2---|
G|-2---0---2---2---|---0---0---2---2-|
D|-0---0---2---4p2-|-----0-------2---|
A|---------0-------|---------0-------|
E|-2---3-----------|-3---------------|

  Emadd9/B A         Em  C G/B A Bm
  Nor have he killed any           But
e|-----------------|-----------------|
B|-----0-------2---|-----1-0-2-------|
G|---0---0---2---2-|-----0-0-2---3/5-|
D|-----4-------2---|-----2-0-2-2-2p--|
A|-2-------0-------|---2-3-2-0---4/6-|
E|-----------------|-0---------------|

  D        C   G/B   G      D
  he took twelve of the king's fat deer  And
e|-----2-----------|-------------2---|
B|-----3-------3---|-------------3---|
G|---2---2-----0---|-----0-----2---2-|
D|-0---------2---0-|---0-----0-------|
A|---------3---2---|-----2h4---------|
E|-----------------|-3---------------|

  G        Emadd9    G       D/F#
  sold them in the   army
e|-----------------|-----------------|
B|-----0-------0---|-----0h3-3-------|
G|-0h2---0---0---0-|-0h2-----2-----2-|
D|-----0---4-------|-----0-----------|
A|-------------2---|-----------------|
E|-3-------0-------|-3-------2-------|


[Solo]
   D       A         G       A
e|-2---5---0---2p0-|---0-------------|
B|-3-------2-------|-3---3-2-----0h2-|
G|-2---0-------0---|-----------2-----|
D|-0-----4-2-------|-----0-------2---|
A|-----------------|---------0-------|
E|-----------------|-3---------------|

   G       Emadd9    G       D/F#
e|-----------------|-----------------|
B|-----0-------0---|-----0h3-3-------|
G|-0h2---0---0---0-|-0h2-----2-----2-|
D|-----0---4-------|-----0-----------|
A|-------------2---|-----------------|
E|-3-------0-------|-3-------2-------|

                Well, the
   Asus4   G
e|-----------------|
B|-------3-------2-|
G|-----2-------0---|
D|---2-------0-----|
A|-0---------------|
E|---------3-------|


[Verse 6]
  D/F# G   A   Bm/A  G         A
judge look'd over his right shoulder, And
e|-----------------|-----------------|
B|-3---3---2---3p2-|-----3-------2---|
G|-2---0---2---2---|---0---0---2---2-|
D|-0---0---2---4p2-|-----0-------2---|
A|---------0-------|---------0-------|
E|-2---3-----------|-3---------------|

  Emadd9/B A         Em  C G/B A Bm
  seeming  very     sorry         He said
e|-----------------|-----------------|
B|-----0-------2---|-----1-0-2-------|
G|---0---0---2---2-|-----0-0-2---3/5-|
D|-----4-------2---|-----2-0-2-2-2p--|
A|-2-------0-------|---2-3-2-0---4/6-|
E|-----------------|-0---------------|

  D        C   G/B   G      D
- I'm  afraid,    you have come too late
e|-----2-----------|-------------2---|
B|-----3-------3---|-------------3---|
G|---2---2-----0---|-----0-----2---2-|
D|-0---------2---0-|---0-----0-------|
A|---------3---2---|-----2h4---------|
E|-----------------|-3---------------|

  Emadd9/B D/F#      Asus4   G
 He's condemned     already        But
e|-----------------|-----------------|
B|---------------3-|-------3-------2-|
G|---0---0-----2---|-----2-------0---|
D|-----4-----0-----|---2-------0-----|
A|-2---------------|-0---------------|
E|---------2-------|---------3-------|


[Verse 7]
  D/F# G   A   Bm/A  G         A
 six  babies   I    have with me   And
e|-----------------|-----------------|
B|-3---3---2---3p2-|-----3-------2---|
G|-2---0---2---2---|---0---0---2---2-|
D|-0---0---2---4p2-|-----0-------2---|
A|---------0-------|---------0-------|
E|-2---3-----------|-3---------------|

  Emadd9/B A         Em  C G/B A Bm
  I  love them so   dearly         And
e|-----------------|-----------------|
B|-----0-------2---|-----1-0-2-------|
G|---0---0---2---2-|-----0-0-2---3/5-|
D|-----4-------2---|-----2-0-2-2-2p--|
A|-2-------0-------|---2-3-2-0---4/6-|
E|-----------------|-0---------------|

  D        C   G/B   G      D
  I would part with them every one, If you will
e|-----2-----------|-------------2---|
B|-----3-------3---|-------------3---|
G|---2---2-----0---|-----0-----2---2-|
D|-0---------2---0-|---0-----0-------|
A|---------3---2---|-----2h4---------|
E|-----------------|-3---------------|

  Emadd9/B D/F#      Asus4   G
 spare me the life of Georgie      The
e|-----------------|-----------------|
B|---------------3-|-------3-------2-|
G|---0---0-----2---|-----2-------0---|
D|-----4-----0-----|---2-------0-----|
A|-2---------------|-0---------------|
E|---------2-------|---------3-------|


[Verse 8]
  D/F# G   A   Bm/A  G         A
judge look'd over his left shoulder  And
e|-----------------|-----------------|
B|-3---3---2---3p2-|-----3-------2---|
G|-2---0---2---2---|---0---0---2---2-|
D|-0---0---2---4p2-|-----0-------2---|
A|---------0-------|---------0-------|
E|-2---3-----------|-3---------------|

  Emadd9/B A         Em  C G/B A Bm
  seeming very hard-hearted         He
e|-----------------|-----------------|
B|-----0-------2---|-----1-0-2-------|
G|---0---0---2---2-|-----0-0-2---3/5-|
D|-----4-------2---|-----2-0-2-2-2p--|
A|-2-------0-------|---2-3-2-0---4/6-|
E|-----------------|-0---------------|

  D        C   G/B   G      D
 said, I'm afraid, you have come too late, Because there 
e|-----2-----------|-------------2---|
B|-----3-------3---|-------------3---|
G|---2---2-----0---|-----0-----2---2-|
D|-0---------2---0-|---0-----0-------|
A|---------3---2---|-----2h4---------|
E|-----------------|-3---------------|

  Emadd9/B D/F#      Asus4   G
  is no  pardon      granted      We'll
e|-----------------|-----------------|
B|---------------3-|-------3-------2-|
G|---0---0-----2---|-----2-------0---|
D|-----4-----0-----|---2-------0-----|
A|-2---------------|-0---------------|
E|---------2-------|---------3-------|


[Verse 9]
  D/F# G   A   Bm/A  G         A
 let George hang in a chain of gold  Which are
e|-----------------|-----------------|
B|-3---3---2---3p2-|-----3-------2---|
G|-2---0---2---2---|---0---0---2---2-|
D|-0---0---2---4p2-|-----0-------2---|
A|---------0-------|---------0-------|
E|-2---3-----------|-3---------------|

  Emadd9/B A         Em  C G/B A Bm
 few, there are not many           Be-
e|-----------------|-----------------|
B|-----0-------2---|-----1-0-2-------|
G|---0---0---2---2-|-----0-0-2---3/5-|
D|-----4-------2---|-----2-0-2-2-2p--|
A|-2-------0-------|---2-3-2-0---4/6-|
E|-----------------|-0---------------|

  D        C   G/B   G      D
 cause he came from a noble life  And he was
e|-----2-----------|-------------2---|
B|-----3-------3---|-------------3---|
G|---2---2-----0---|-----0-----2---2-|
D|-0---------2---0-|---0-----0-------|
A|---------3---2---|-----2h4---------|
E|-----------------|-3---------------|

  G        Emadd9    G       D/F#
  loved by a virtuous lady
e|-----------------|-----------------|
B|-----0-------0---|-----0h3-3-------|
G|-0h2---0---0---0-|-0h2-----2-----2-|
D|-----0---4-------|-----0-----------|
A|-------------2---|-----------------|
E|-3-------0-------|-3-------2-------|


[Outro]
   D       A         G       A
e|-2---5---0---2p0-|---0-------------|
B|-3-------2-------|-3---3-2-----0h2-|
G|-2---0-------0---|-----------2-----|
D|-0-----4-2-------|-----0-------2---|
A|-----------------|---------0-------|
E|-----------------|-3---------------|

   G       Emadd9    G       D/F# G
e|-----------------|-----------------|
B|-----0-------0---|-----0h3-3---0---|
G|-0h2---0---0---0-|-0h2-----2-2---0-|
D|-----0---4-------|-----0-----------|
A|-------------2---|-----------------|
E|-3-------0-------|-3-------2---3---|

   A
e|-----------------|
B|-------2---------|
G|-----2-----------|
D|---2-------------|
A|-0-------0-------|
E|-----------------|



***********************************

| \   Slide down
| h   Hummer-on
| p   Pull off

***********************************
Suggest correction
Give kudos to tab author, rate the tab!
1 2 3 4 5
comments
print report bad tab
guest
You may want to rate the tab now too:
select rating
Wanna post a correction for this tab? Suggest correction