Oops, an error
Loading. Please wait.

Blackout Tab

401 views 1 this week
no commentswrite comment
1 2 3 4 5
3 more votes to show rating
add to favorites
launch autoscroll
font size
0
reset
how to read this tab
guitar tuner
Autoscroll
slow
fast
+/-
esc
set tempo
stop
Help us to improve Ultimate-Guitar.com Take our survey!
×
Author
Difficulty
novice
-------------------------------------------------------------------------------
                             Blackout - Chris Garneau
-------------------------------------------------------------------------------
Tabbed by: asd20227
Email: timothy8888 at gmail.com
Key: D
Tuning: Standard

(Intro)

e|-2--5---|-2--0---|-2--2---|-2p0----0-|-2---5-2--|-0---5-0--|----3--0-|--2--|
B|--------|--------|--------|-----3----|----------|----------|-3-------|-----|
G|--------|--------|--------|----------|----------|----------|---------|-----|
D|-0------|--------|-0------|----------|-0--------|----------|---------|--0--|
A|--------|-2------|--------|-2--------|----------|-4--------|-2-------|-----|
E|--------|--------|--------|----------|----------|----------|---------|-----|

(Verse and Chorus)

      D/A              A                E/G#             E/G
e||--------------------------------------------------------------------------|
B||--------------------------------------------------------------------------|
G||*-------------------------------------------------------------------------|
D||*------4---4---4--------2---2---2--------2---2---2--------2---2---0-------|
A||-----5---5---5---5----4---4---4---4----2---2---2---2----2---2---2---2-----|
E||---5----------------5----------------4----------------3-------------------|

   1. I,      I   was  kidding              about the mean things
   2. I,      I'll be quiet then            And you do all of the talking

      D/A              A                E/G#             E/G
e|---------------------------------------------------------------------------|
B|---------------------------------------------------------------------------|
G|---------------------------------------------------------------------------|
D|--------4---4---4--------2---2---2--------2---2---2--------2---2---0-------|
A|------5---5---5---5----4---4---4---4----2---2---2---2----2---2---2---2-----|
E|----5----------------5----------------4----------------3-------------------|

      While   we  were sleeping        Heat rushed in,    heat rushed in
      Then  we're walking           Thoughts rush in, those thoughts rush in

      D/A              A                G                D/A
e|-------------------------------------------------------------------------|
B|-------------------------------------------------------------------------|
G|-------------------------------------------------------------------------|
D|--------4---4---4--------2---2---2--------5---5---5----------4-----------|
A|------5---5---5---5----4---4---4---4----5---5---5---5-----5------5-------|
E|----5----------------5----------------3----------------5------------5----|

  The fan stopped, the fan stopped      Oh    oh         oh           oh
  The heart stops, the heart stops      Oh    oh         oh           oh

      D/A              G/B              D/A              G/B
e|---------------------------------------------------------------------------|
B|---------------------------------------------------------------------------|
G|---------------------------------------------------------------------------|
D|----4-----4-----4----5-----5-----5----4-----4-----4----5-----5-----5-------|
A|------5-----5-----5----5-----5-----5----5-----5-----5----5-----5-----5-----|
E|--------5-----5----------7-----7----------5-----5----------7-----7---------|

      Flashlights in  delis           Drinking on the street      All the

      D/A              A                G                D/A
e|---------------------------------------------------------------------------|
B|---------------------------------------------------------------------------|
G|--------------------------------------------0------------------------------|
D|----4-----4-----4----2-----2-----2----0---0---0--------------4-----4-------|
A|------5-----5-----5----4-----4-----4----2-------2-4----5---5---5-----5-----|
E|--------5-----5----------5-----5--------------------5----5-------5---------|

     lights are out in New York    Ci - ty                           And it

      D/A              G/B              D/A              G/B
e|---------------------------------------------------------------------------|
B|---------------------------------------------------------------------------|
G|---------------------------------------------------------------------------|
D|----4-----4-----4----5-----5-----5----4-----4-----4----5-----5-----5-------|
A|------5-----5-----5----5-----5-----5----5-----5-----5----5-----5-----5-----|
E|--------5-----5----------7-----7----------5-----5----------7-----7---------|

      never   ever     will be          too     damn     late         To

      D/A              A                G                
e|---------------------------------------------------------|
B|---------------------------------------------------------|
G|--------------------------------------------0------------|
D|----4-----4-----4----2-----2-----2----0---0---0----------|
A|------5-----5-----5----4-----4-----4----2-------2-4------|
E|--------5-----5----------5-----5--------------------5----|

     run inside   the  market           place

   _________                               _________
  | 1.                                    | 2.

   D/A                                    D/A
e|------------------------------------||-------------------|
B|------------------------------------||-------------------|
G|-----------------------------------*||-------------------|
D|-------4-----4------4-4---4--------*||--------4-----4----|
A|-5---5---5-----5--------5---5---5---||--5---5---5-----5--|
E|---5-------5------5-----------5-----||----5-------5------|

                                                       And it

      D/A              G/B              D/A              G/B
e|---------------------------------------------------------------------------|
B|---------------------------------------------------------------------------|
G|---------------------------------------------------------------------------|
D|----4-----4-----4----5-----5-----5----4-----4-----4----5-----5-----5-------|
A|------5-----5-----5----5-----5-----5----5-----5-----5----5-----5-----5-----|
E|--------5-----5----------7-----7----------5-----5----------7-----7---------|

      never   ever     will be          too     damn     late         To

      D/A              A                G                
e|---------------------------------------------------------|
B|---------------------------------------------------------|
G|--------------------------------------------0------------|
D|----4-----4-----4----2-----2-----2----0---0---0----------|
A|------5-----5-----5----4-----4-----4----2-------2-4------|
E|--------5-----5----------5-----5--------------------5----|

     run inside   the  market           place

   D/A
e|--------------------------------------|
B|--------------------------------------|
G|--------------------------------------|
D|---------4-----4------4-4---4---------|
A|---5---5---5-----5--------5---5---5---|
E|-----5-------5------5-----------5-----|

(Solo)

e|-2-----5----------|-2-----0----------|-2-------2--------|-2p0------------0-|
B|---3-------3---3--|---3-------3---3--|---3---3---3---3--|----3---3-----3---|
G|-----2-------2----|-----0-------0----|-----2-------2----|------0-----0-----|
D|-0----------------|------------------|-0----------------|------------------|
A|------------------|------------------|------------------|------------------|
E|------------------|-3----------------|------------------|-3----------------|

e|-2-----3-----2----|-2-----0----------|------------------|------------------|
B|---3-------3---3--|---2-------2---2--|-3-----------0----|-3----------------|
G|-----2------------|-----2-------2----|-----0------------|------------------|
D|-0----------------|------------------|---0---0---0---0--|-----4---4---4----|
A|------------------|-0----------------|------------------|---5---5---5---5--|
E|------------------|------------------|-3----------------|-5----------------|

(Last verse)

     D/A              D/A              A                E/G#
e|---------------------------------------------------------------------------|
B|---------------------------------------------------------------------------|
G|---------------------------------------------------------------------------|
D|-------4---4---4--------4---4---4--------2---2---2--------2---2---2--------|
A|-----5---5---5---5----5---5---5---5----4---4---4---4----2---2---2---2------|
E|---5----------------5----------------5----------------4--------------------|

                      I   sit by the window              and I watch all of the 

    E/G                D/A           A             G             D      A
e|-------------------|-2-----5-----|-0-----7-----|-8-----7-----|-10-----9----|
B|-------------------|---3---------|---2---------|---8---------|---10--------|
G|-------------------|-----2-------|-----2-------|-----7-------|------9------|
D|------2---2---0----|-------------|-------------|-------------|-------------|
A|----2---2---2---2--|-0-----------|-0-----------|-------------|-------------|
E|--3----------------|-------------|-------------|-------------|-------------|

    little             raindrops,    raindrops     Oh   oh       oh    oh

   G             D      A        D
e|-8-----7-----|-10-----9-----|--10--|
B|---8---------|---10---------|--10--|
G|-----7-------|------9-------|--11--|
D|-------------|--------------|------|
A|-------------|--------------|------|
E|-------------|--------------|------|

   Oh   oh       oh     oh       Oh

Suggest correction
Give kudos to tab author, rate the tab!
1 2 3 4 5
comments
print report bad tab
guest
You may want to rate the tab now too:
select rating
Wanna post a correction for this tab? Suggest correction