Oops, an error
Loading. Please wait.

Baby Did A Bad Bad Thing Tab

version 2
version 2

Whole song

11,242 views 42 this week
1 commentread comment
1 2 3 4 5
accurate
x 5
add to favorites
launch autoscroll
font size
0
reset
how to read this tab
guitar tuner
Autoscroll
slow
fast
+/-
esc
set tempo
stop
Help us to improve Ultimate-Guitar.com Take our survey!
×
Contributor
Difficulty
hijoert 115
intermediate
Tuning: EADGBe

Play softly at first and increase intensity with time. 
You can begin with PM and vary until playing upon the neck.
Progressively play the rest of the notes in the E chord (0221)

Verse 1:
e|----------------------------------------------------------------|
B|----------------------------------------------------------------|
G|----------------------------------------------------------------|
D|----------------------------------------------------------------|
A|-----------------2p0-------0-----2-2--2-2-----------------------|
E|---0-0--0-0------------03b----0--0-0--0-0--------0-3-5-5p3------|

e|----------------------------------------------------------------|
B|----------------------------------------------------------------|
G|--------1-1-----------------------------------------------------|
D|---2-2--2-2---------------------2-2--2-2------------------------|
A|---2-2--2-2------2p0-------0----2-2--2-2------------------------|
E|---0-0--0-0------------03b---0--0-0--0-0-------0-3-5-5p3--------|


Bridge 1 :
e|---------------------------------------------------------------|
B|-----------------------------------------------0-0-0-0-0-0-0-0-|
G|-----------------------------------------------1-1-1-1-1-1-1-1-|
D|---------0----------0-LR------0---------0------2-2-2-2-2-2-2-2-|
A|----0h2------0h2----------0h2-----0h2----------2-2-2-2-2-2-2-2-|
E|-----------------------------------------------0-0-0-0-0-0-0-0-|

Verse 2 :

e|----------------------------------------------------------------|
B|----------------------------------------------------------------|
G|----------------------------------------------------------------|
D|----------------------------------------------------------------|
A|-----------------2p0-------0-----2-2--2-2-----------------------|
E|---0-0--0-0------------03b----0--0-0--0-0--------0-3-5-5p3------|

e|----------------------------------------------------------------|
B|----------------------------------------------------------------|
G|--------1-1-----------------------------------------------------|
D|---2-2--2-2---------------------2-2--2-2------------------------|
A|---2-2--2-2------2p0-------0----2-2--2-2------------------------|
E|---0-0--0-0------------03b---0--0-0--0-0-------0-3-5-5p3--------|

Bridge 2 :
e|-------------------------------------------------------------|
B|-------------------------------------------0-0-0-0--0-0-0-0--|
G|-------------------------------------------1-1-1-1--1-1-1-1--|
D|----------0--------0-LR------0--------0----2-2-2-2--2-2-2-2--|
A|---0h2------0h2----------0h2-----0h2-------2-2-2-2--2-2-2-2--|
E|-------------------------------------------0-0-0-0--0-0-0-0--|

e|-----------------------------------------------------------|
B|--2-2-2-2-2-2-2-2----2-2-2-2-2-2-2-2-----------------------|
G|--2-2-2-2-2-2-2-2----2-2-2-2-2-2-2-2---1-1-1-1-1-1-1-1-----|
D|--2-2-2-2-2-2-2-2----2-2-2-2-2-2-2-2---2-2-2-2-2-2-2-2-----|
A|--0-0-0-0-0-0-0-0----0-0-0-0-0-0-0-0---2-2-2-2-2-2-2-2-----|
E|---------------------------------------0-0-0-0-0-0-0-0-----|


e|-------------------------------------------------------------------|
B|-------------------------------------------------------------------|
G|-------------------------------------------------------------------|
D|-------0h2--------0h2---------0h2-------0h2---0-LR-----------------|
A|--0h2-------2p0----------0h2-------2p0-----------------------------|
E|-------------------------------------------------------------------|
                                                         
e|-------------------------------------------------------------------|
B|-------------------------------------------------------------------|
G|-------------------------------------------------------------------|
D|--------0h2-------0h2-----------0h2-------0h2-LR----2p0------------|
A|--0h2-------2p0-----------0h2--------2p0---------------------------|
E|--------------------------------------------------------3b---------|
                                                          PM
Outro :

e|-------------------------------------------------------------------|
B|-------------------------------------------------------------------|
G|-------------------------------------------------------------------|
D|-------------------------------------------------------------------|
A|-------------------2p0-------0-----2-2--2-2------------------------|
E|-----0-0--0-0------------03b-------0-0--0-0--------0-3-5-5p3-------|

e|-------------------------------------------------------------------|
B|-------------------------------------------------------------------|
G|--------1-1--------------------------------------------------------|
D|---2-2--2-2---------------------2-2--2-2---------------------------|
A|---2-2--2-2------2p0-------0----2-2--2-2---------------------------|
E|---0-0--0-0-----------03b-------0-0--0-0-------0-3-5-5p3-----------|

************************************

| /   slide up
| \   slide down
| h   hammer-on
| p   pull-off
| ~   vibrato
| +   harmonic
| x   Mute note
| b   Bend
| pb  Pre-bend
| br  Bend release
| pbr Pre-bend release
| brb Bend release bend

***********************************
comments
print report bad tab
1 comment total.
0 reply
hijoert 115 wrote on August 29 2012, 05:44 pm

Made a mistake actually, here is a better sounding tab the intro/main riff:

e|------------------------------------------------------------|
B|------------------------------------------------------------|
G|------------------------------------------------------------|
D|-------------------------------(2)(2)(2)(2)-----------------|
A|---------------2p0-------0------2--2--2--2------2-----------|
E|---0-0--0-0---------03b-------0-0--0--0--0----0----0-3-5p3--|

I want to post or [tab]
guest
You may want to rate the tab now too:
select rating
Please do not post tabs as comments. Select "correction" instead!