Oops, an error
Loading. Please wait.

Forever Blue Acoustic Tab

6,969 views 24 this week
no commentswrite comment
1 2 3 4 5
excellent!
x 4
add to favorites
launch autoscroll
font size
0
reset
how to read this tab
guitar tuner
Tab Pro tools
  • play this tab
  • loop segment
  • change instrument
  • show fretboard
  • metronome
Autoscroll
slow
fast
+/-
esc
set tempo
stop
Contributor
Difficulty
intermediate
-------------------------------------------------------------------------
                   Forever Blue (acoustic version) - Chris Isaak
-------------------------------------------------------------------------
Tabbed by: Rick
Email: pbc_rick@hotmail.com

Tuning: EADGBE

e|-0-0--2-2--4-4---------------0-0------------------4----------2--0--------|
B|-2-2--2-2--5---5---5---------2-2------2-----5--------------3----2--------|
G|-2-2--2-2--6-----6---6---6---2-2--------2-----6----------2------2--------|
D|-2-2--4-4--6-----------6-----2-2----------------6------0--------2--------|
A|-0-0--4-4--4-----------------0-0-----4---------------0----------0--------|
E|------2-2--------------------------2------x------------------------------|

 0:14
e|------------0------------------------------------------------------------|
B|---------0--2--------------------------2---------------------------------|
G|-------1----2--------0--------1------2----------1------------------------|
D|-----0------2------3--------0------2----------0--------------------------|
A|---2--------0----3--------2------0----------2----------------------------|
E|-0-------------1--------0-----------------0------------------------------|

 0:24   
e|--------0------2------4--3--4--4---------0------2------4--3--4--4--------|
B|--------2------2------5--4--5----5-------2------2------5--4--5----5------|
G|--------2------2------6--5--6------6-----2------2------6--5--6------6----|      
D|--------2------4------6--5--6------------2------4------6--5--6-----------|     
A|-----0--0------4---4--4--3--4---------0--0------4---4--4--3--4-----------|     
E|------------2--2-----------------------------2--2------------------------|    

 0:36
e|----2------------------------------1--1---0--0---------------------------|
B|----3---------2----------------2---1--1---0--0---------2-----------------|
G|----2-------2-----1--1-------2-----2--2---1--1-------2-----------1-------|
D|-0--0-----2-------0--0-----2-------3--3---0--0-----2-----------0---------|
A|--------0---------2--2---0---------3--3---2--2---0-----------2-----------|
E|------------------0--0-------------1--1---0--0-------------0-------------|

 0:47
e|--------0------2------4--3--4--4---------0------2------4--3--4--4--------|
B|--------2------2------5--4--5----5-------2------2------5--4--5----5------|
G|--------2------2------6--5--6------6-----2------2------6--5--6------6----|      
D|--------2------4------6--5--6------------2------4------6--5--6-----------|     
A|-----0--0------4---4--4--3--4---------0--0------4---4--4--3--4-----------|     
E|------------2--2-----------------------------2--2------------------------|

 0:59
e|----2------------------------------1--1---0--0-----------------0---------|
B|----3---------2----------------2---1--1---0--0---------2h3-2---2---------|
G|----2-------2-----1--1-------2-----2--2---1--1-------2---------2---------|
D|-0--0-----2-------0--0-----2-------3--3---0--0-----2-----------2---------|
A|--------0---------2--2---0---------3--3---2--2---0-------------0---------|
E|------------------0--0-------------1--1---0--0---------------------------|

 1:11
e|-2--2--2--2------------2-0--0--2--2--2--2-----------0---0---2--2---------|
B|-1--1--1--1----------2------2--1--1--1--1---------2-----2---3--3---------|
G|-1--1--1--1--------2--------2--1--1--1--1-------2-------2---2--2---------|
D|-----------------2----------2-----------------2---------2---0--0---------|
A|--------------0-------------0---------------0-----------0----------------|
E|-------------------------------------------------------------------------|

 1:24
e|--------------------------------1--1---0--0------------------------------|
B|-------2--------------------2---1--1---0--0---------2--------------------|
G|-----2------------1-------2-----2--2---1--1-------2-----------1----------|
D|---2-----------0--0-----2-------3--3---0--0-----2-----------0------------|
A|-0-----------2----2---0---------3--3---2--2---0-----------2--------------|
E|-----------0--------------------1--1---0--0-------------0----------------|

 1:34
e|-----------2--2---4---4-3-4-4------------0------2---4--4--3--4--4--------|
B|-------2---2--2---5---5-4-5---5----------2------2---5--5--4--5----5------|
G|-----2-----2--2---6---6-5-6-----6--------2------2---6--6--5--6------6----|
D|---2-------4--4---6---6-5-6--------------2------4---6--6--5--6-----------|
A|-0---------4--4---4---4-3-4-----------0--0------4---4--4--3--4-----------|
E|-----------2--2------------------------------2--2------------------------|

 1:46
e|-------2---0--------------0----------------------------------------------|
B|-----3-----2-----------0--2--------------------------2-------------------|
G|---2-------2---------1----2--------0--------1------2----------1----------|
D|-0---------2-------0------2------3--------0------2----------0------------|
A|-----------0-----2--------0----3--------2------0----------2--------------|
E|---------------0-------------1--------0-----------------0----------------|

 1:58
e|-----0--0---2--2---4--4--3--4--4---------0------2------4--3--4--4--------|
B|-----2--2---2--2---5--5--4--5----5-------2------2------5--4--5----5------|
G|-----2--2---2--2---5--6--5--6------6-----2------2------6--5--6------6----|      
D|-----2--2---4--4---6--6--5--6------------2------4------6--5--6-----------|     
A|-----0--0---4--4---4--4--3--4---------0--0------4---4--4--3--4-----------|     
E|------------2--2-----------------------------2--2------------------------|

 2:10
e|----2------------------------------1--1---0--0-----------------0----1----|
B|----3---------2----------------2---1--1---0--0---------2h3-2---2----1----|
G|----2-------2-----1--1-------2-----2--2---1--1-------2---------2----2----|
D|-0--0-----2-------0--0-----2-------3--3---0--0-----2-----------2----3----|
A|--------0---------2--2---0---------3--3---2--2---0-------------0----3----|
E|------------------0--0-------------1--1---0--0----------------------1----|

 2:23
e|-----------0---10--7--5-----------0--------------------------------------|
B|---------0-----11--8--6---------2----------------------------------------|
G|-------1-------12--9--7-------2------------------------------------------|
D|-----0----------------------2--------------------------------------------|
A|---2----------------------0----------------------------------------------|
E|-0-----------------------------------------------------------------------|
   
Enjoy!

| /  slide up
| \  slide down
| h  hammer-on
| p  pull-off
| ~  vibrato
| +  harmonic
| x  Mute note
===========================================================================
comments
print report bad tab
I want to post or [tab]
guest
You may want to rate the tab now too:
select rating
Please do not post tabs as comments. Select "correction" instead!