Oops, an error
Loading. Please wait.

I Wonder Tab

version 2
version 2

Whole song

4,217 views 3 this week
no commentswrite comment
1 2 3 4 5
excellent!
x 5
add to favorites
launch autoscroll
font size
0
reset
how to read this tab
guitar tuner
Tab Pro tools
  • play this tab
  • loop segment
  • change instrument
  • show fretboard
  • metronome
×
Best way to learn
"I Wonder"
Autoscroll
slow
fast
+/-
esc
set tempo
stop
Contributor
#----------------------------------PLEASE NOTE--------------------------------#
#This file is the author's own work and represents their interpretation of the#
#song. You may only use this file for private study, scholarship, or research.#
#-----------------------------------------------------------------------------#
#-- File created with Instab - http://www.pconline.com/~smcarey/instab.html --#
#-----------------------------------------------------------------------------#

Author/Artist: Chris Issac
Title: I Wonder

h hammer on
/ slide up
\ slide down
b bend
r release bend
v vibrate
A arpeggio


Standard Tuning


----|---------------------------------------|
----|---------------------------------------|
----|---------------------------------------|
----|-------5-------------------------------|
----|-5-5h7---------19b--15/17\15--10/12\10-|
----|---------------------------------------|
       

  Intro




----|---------------------------------------------------------------------|
----|---------------------------------------------------------------------|
----|-5-----5-----4----5--------------5-------5----5---4---5--------------|
----|-5-----7-----5----5----------5-----7--5--5----7---5---5--------5-----|
----|-7-----8-----5----7----5-5h7-------------7----8---5---7---5-5h7------|
----|---------------------------------------------------------------------|
      

Verse A     A     A    A           Let Ring   A    A   A   A



------------|
------------|
---------5--|
---5-5h7----|
------------|
------------|






----|-------------------------|--|-------------------|
----|-10---8----5----------8v-|--|--13-----8---------|
----|-9----7----5----7/9------|--|--14-----7--7-7--7-|
----|-------------------------|3x|-------------------|
----|-------------------------|--|-------------------|
----|-------------------------|--|-------------------|
 

  Chorus P   P    P                 P     P     




----|-------------------------------------|
----|-------------------------------------|
----|-5--------------4-4--4-4--5--5-------|
----|-5--------5-----5-5--5-5--5----7--5--|
----|-7--5-5h7-----------------7----------|
----|-------------3-----------------------|
    

  PreVerse                     A





----|------------------------------------------------------------------------------------|
----|------------------------------------------------------------------------------------|
----|-------------------------------5--5/7\5---5---2-----------------------------5h7/9---|
----|--------------5-5-----5--------5--5/7\5---5---3---5----------------5h7--------------|
----|-----3--3-5h7---5h7---5h7-5--3-7------------------7---17br-15/17\15-----------------|
----|-3h5--------------------------------------------------------------------------------|
   Solo           Pluck.....                Pluck....




-------------------------------------------------------------------------------------|
---8---8/13--13/15\13----------------------------------------------------------------|
-9-----9/14--14/16\14--14--------------------------------------------17/21-19--17----|
-----------------------15-12-12/14-----------------------------14/17-----------------|
--------------------------14-14/15--17br-15--10/12-15-15/17-19-----------------------|
-------------------------------------------------------------------------------------|
       Pluck....



----|--------------------------|--|------------------------------|
----|--------------------------|--|-------------------5--5-------|
----|-5--------------4-4--4-4--|--|-5--------------4--5--7---5---|
----|-5--------5-----5-5--5-5--|--|-5--------5-----5--5--5---5---|
----|-7--5-5h7-----------------|--|-7--5-5h7-----------------7---|
----|-------------3------------|--|-------------3----------------|
     

 Ending                             A                 A  A   A
comments
print report bad tab
I want to post or [tab]
guest
You may want to rate the tab now too:
select rating
Please do not post tabs as comments. Select "correction" instead!