Oops, an error
Loading. Please wait.

Let Me Down Easy Tab

4,516 views 1 this week
2 commentsread comments
1 2 3 4 5
x 3
add to favorites
launch autoscroll
font size
0
reset
how to read this tab
guitar tuner
backing track
0:00
0:00
×
Best way to learn
"Let Me Down Easy"
Autoscroll
slow
fast
+/-
esc
set tempo
stop
Author
This is the only part of the song i like... and its played several times throughout the 
song...

-----0---0-----0---0-----0---0--------0--------0----
-------4----2----4---------4------------4-2-1-2-4---
----------------------------------------------------
----------------------6---------4-------------------
----------------------------------------------------
--0-------------------------------------------------

thats about it... 
Suggest correction
Give kudos to tab author, rate the tab!
1 2 3 4 5
comments
print report bad tab
2 comments total.
-1 reply
Van Zepplin 35 Apr 19, 2002 08:00 PM

WOW ! Perfect tab, you are a G-E-N-I-U-S !!!!

0 reply
thamlett 75 Apr 08, 2017 02:03 PM, edited at 06:11 pm

I think it actually goes like this.

-----0---0-----0---0-----0---0-------------------------0-----------
-------4----------4----------4-----------------------0-----0--------
------------2-----------1------------------------2--------------2-----2
---------------------------------------------4----------------------4---
------------------------------------------------------------------
--0---------------------------------------------------------------

guest
You may want to rate the tab now too:
select rating
Wanna post a correction for this tab? Suggest correction