Oops, an error
Loading. Please wait.

Somebodys Crying Chords

version 1
version 1

Whole song

Interactive

30,176 views 30 this week
4 commentsread comments
1 2 3 4 5
x 3
add to favorites
launch autoscroll
font size
0
reset
transpose
0
reset
display chords
guitar tuner
Autoscroll
slow
fast
+/-
esc
set tempo
stop
Help us to improve Ultimate-Guitar.com Take our survey!
×
#----------------------------------PLEASE NOTE---------------------------------#
#This file is the author's own work and represents their interpretation of the #
#song. You may only use this file for private study, scholarship, or research. #
#------------------------------------------------------------------------------##
Date: Tue, 19 Sep 1995 21:08:16 +0800 (SST)
From: CoolDude 
Subject: CRD: Somebody's Crying, Chris Isaak

Okay, I'd put together all the stuff I'd downloaded from the r.m.m.g.t. abt
the Chris Isaak song "Somebody's Crying". So, here they are, with the lyrics
(mine! ) :P.

Somebody's Crying - Chris Isaak

I met somebody and they cry for you...
They lie awake at nite and dream of you
I bet you never even know they do
But, somebody's crying ....

I know somebody and they call your name...
A million times but still you never came....
They go on loving you just the same...
I know that somebody's trying....

So please return the look you took from me...
Oh please you let me know if it can't be me...
I'll know that somebody's lying...

I know that somebody's lying...
I know that somebody's lying...

Give me a sign and let me know we're thru...
If you don't love me like I love you...
But if you cry at nite the way I do
I'll know that somebody's lying...

So please return the look you took from me...
Oh please you let me know if it can't be me...
I'll know that somebody's lying...

From: Albert Lozoya 

I don't have a tablature program so I'll just give you the chords
and maybe you can figure it out yourself.

Somebody's Crying


Capo on 2nd fret

C     Am       F     C

--------------------------------------------------------------
('v')Jonathan Lozoya   ag331rgfn.epcc.edu
  
  El Paso , TX.
/'~'----------------------------------------------------------

From: Athyra 

Somebody's Crying - Chris Isaak
transcribed by Cliff Hicks

Here's how i think it goes...

C         Am    F      G
----------------------------------------------------
----------------------------------------------------
-------1-----1-------2-------0------------------
----2------2------3-------0---------------------
-3-------0-----3----------------------------------
-------------------------3--------------------------

It won't sound exactly like the recording unless your on a twelve string
(which is how I transcribed it) so don't worry about it.
                                                                          
         ~Cliff

From: Unknown@.MISSING-HOST-NAME.

The chords are:   F  Dm  Bb  F  (repeated through verse)

                     then:

                  F  Bb  F  Bb     through the chorus  ("so, please...")

I think the posting from 'Albert Lozoya' showing the 'C-Am-F-C' progression
using a capo might be easier to play, but if my ears aren't deceiving me,
I hear it in 'F'.  Either way, it ain't too tough!

Keep on strummin'!

J Smith
Sunnyvale, CA

From: Caleb Rudd 

There seems to be some discussion over Chris Isaak's Somebody's Crying. The way
Isaak himself plays it is F Dm Bb F in the verse and F Bb F Bb for the chorus.
That's they way he played it on live TV when over here (Australia) recently
anyway. The intro is just F Dm played slowly. The F, Dm and Bb are barre chords
while Dm is open. A bit tricky to play at first.

What I would like is the lead riff/instrumental played in the chorus. It doesn't
sound very complex (3-4 notes) but I can't seem to get it.

Ta

Caleb

Date: 10 SEP 1995 05:18:48 GMT 
From: lestat@libertynet.org
Subject: SOMEBODY'S CRYING tab 

A good samaritan sent this to me so I'll post it:

The chords are F,Dm, Bb, and F for the first part, then,
F, Bb, F, Bb for the second part
 
I worked out the finger picking in the first part, see what you think:


[                 F                   ][                    Dm           ][               Bb               ][        F         ]


-----------------------1------------------------------------------------------------------------------------6-------------1------------------------------
---------------------------------------------------------------3------------------------------6---------------------------1-----------------------------
--------------2--------------2--------------------2-------------------2-------------------------------------------------2--------------------------------
-----3-----------------------------------0---------------------------------------8---------------------------------------3-------------------------------
----------------------------------------------------------------------------------------------------------------------------3--------------------------
----------------------------------------------------------------------------------------------------------------------------1--------------------------


Drop me a line to tell me what you think or if you figure out the rest, hope you like it

----------------------------------------------------------------------------
And that's that...
Enjoy... :)

:|^^^^^^^^|::::::::::::::: Tang Seng Chun Alvin :::::::::::::::|^^^^^^^^|:
:| (.)(.) |:::::::::: email me at s4201963@np.ac.sg :::::::::::| (.)(.) |:
:|        |::::::::: Ngee Ann Polytechnic, Singapore ::::::::::|        |:
::\ `--' /::::::: * DON'T HAVE A COW * HAVE A NICE DAY * :::::::\ `--' /::


Suggest correction
Give kudos to tab author, rate the tab!
1 2 3 4 5
comments
print report bad tab
4 comments total. Showing first comments.
0 reply
Marvin2Shoes 500 Dec 28, 2004 12:00 AM

This is in the right key... no capo required - open tuning
The TAB version posted here is all stuffed up.... btw to the TAB version guy: learn to spell "cHord" properly. To the guys helping each other out on the chord version... good work & keep it coming.

0 reply
steggz 41 Aug 02, 2005 12:00 AM

Ok... its the right progression, sounds better played capo on 5th as C Am F C then for the chorus its C then F.

0 reply
mattman141 10 Sep 14, 2008 06:51 AM

sounds great on the 12 string =]

guest
You may want to rate the tab now too:
select rating
Wanna post a correction for this tab? Suggest correction