Oops, an error
Loading. Please wait.

There She Goes Tab

1,381 views 1 this week
1 commentread comment
1 2 3 4 5
worth learning
x 3
add to favorites
launch autoscroll
font size
0
reset
how to read this tab
guitar tuner
Tab Pro tools
  • play this tab
  • loop segment
  • change instrument
  • show fretboard
  • metronome
×
Best way to learn
"There She Goes"
Autoscroll
slow
fast
+/-
esc
set tempo
stop
Contributor
-----------------------------------------------------------                    THERE SHE GOES - Chris Isaak
-----------------------------------------------------------

By:alimania

e|-----3---5---2---3---0---0---0---0--|
B|---3---3---3---3---3---3---3---3----|
G|------------------------------------| (REPEAT)
D|------------------------------------|
A|------------------------------------|
E|------------------------------------|
comments
We did not receive enough feedback on this tab! Please rate:
print report bad tab
1 2 3 4 5
1 comment total.
0 reply
andrewbiles wrote on August 23 2002, 12:00 am

ok, first off I thought this song was by The La's, secondly the ending to the intro is

---0---0---0-----
-3---3---3---3---
---------------0-
-----------------
-----------------
-----------------

I want to post or [tab]
guest
You may want to rate the tab now too:
select rating
Please do not post tabs as comments. Select "correction" instead!