Oops, an error
Loading. Please wait.

Wicked Game Bass Tab

version 2
version 2

Whole song

Interactive

22,452 views 84 this week
1 commentread comment
1 2 3 4 5
excellent!
x 9
add to favorites
launch autoscroll
font size
0
reset
guitar tuner
Autoscroll
slow
fast
+/-
esc
set tempo
stop
Help us to improve Ultimate-Guitar.com Take our survey!
×
Author
Difficulty
novice
[INTRO]

  Bm       A        E        E        Bm       A        E        E        
G:--------|--------|--------|--------|--------|--------|--------|--------|
D:--------|--------|--------|--------|--------|--------|--------|--------|
A:2--22---|0--00---|--------|-------0|2--22---|0--00---|--------|----2---|
E:--------|--------|0--00---|0--00-4-|--------|--------|0--00---|0--0--0-|

  Bm       A        E        E        Bm       A        E        E        
G:--------|--------|--------|--------|--------|--------|--------|--------|
D:--------|--------|--------|--------|--------|--------|--------|--------|
A:2--22---|0--00---|--------|----2---|2--22---|0--00---|--------|-------0|
E:--------|--------|0--00---|0--0--0-|--------|--------|0--00---|0--00-4-|



[VERSE]

  Bm                A                        E            E
  World was on fire no one could save me but you
  Bm                       A                   E          E
  Strange what desire will make foolish people do
  Bm                   A                      E           E
  I never dreamed that I'd meet somebody like you
  Bm                      A                      E        E
  I've never dreamed that I'd lose somebody like you

  Bm       A        E        E        Bm       A        E        E        
G:--------|--------|--------|--------|--------|--------|--------|--------|
D:--------|--------|--------|--------|--------|--------|--------|--------|
A:2--22---|0--00---|--------|----2---|2--22---|0--00---|--------|-------0|
E:--------|--------|0--00---|0--0--0-|--------|--------|0--00---|0--00-4-|

  Bm       A        E        E        Bm       A        E        E        
G:--------|--------|--------|--------|--------|--------|--------|--------|
D:--------|--------|--------|--------|--------|--------|--------|--------|
A:2--22---|0--00---|--------|----2---|2--22---|0--00---|--------|-------0|
E:--------|--------|0--00---|0--0--0-|--------|--------|0--00---|0--00-4-|



[CHORUS]

      Bm  A                       E                           E
  No, I     don't want to fall in love
                                    (This world is only gonna break your heart)
      Bm  A                       E                           E
  No, I     don't want to fall in love
                                    (This world is only gonna break your heart)
       Bm   A                     E                           E
  With you
       Bm   A                     E                           E
  With you
                                    (This world is only gonna break your heart)

  Bm       A        E        E        Bm       A        E        E        
G:--------|--------|--------|--------|--------|--------|--------|--------|
D:----4---|--------|--------|--------|----4---|--------|--------|--------|
A:2--2--2-|0--00---|--------|----2---|2--2--2-|0--00---|--------|-------0|
E:--------|--------|0--00---|0--0--0-|--------|--------|0--00---|0--00-4-|

  Bm       A        E        E        Bm       A        E        E        
G:--------|--------|--------|--------|--------|--------|--------|--------|
D:--------|--------|--------|--------|----4---|--------|--------|--------|
A:2--22---|0--00---|--------|----2---|2--2--2-|0--00---|--------|-------0|
E:--------|--------|0--00---|0--0--0-|--------|--------|0--00---|0--00-4-|




[VERSE]

  Bm               A               E            E
     What a wicked game you play     To make me feel this way
  Bm               A               E            E
     What a wicked thing to do        To let me dream of you
  Bm               A               E            E
     What a wicked thing to say       You never felt this way
  Bm               A               E            E
     What a wicked thing to do       To make me dream of you
  
  Bm       A        E        E        Bm       A        E        E        
G:--------|--------|--------|--------|--------|--------|--------|--------|
D:--------|--------|--------|--------|--------|--------|--------|--------|
A:2--22---|0--00---|--------|----2---|2--22---|0--00---|--------|--------|
E:--------|--------|0--00---|0--0--0-|--------|--------|0--00---|0--00---|

  Bm       A        E        E        Bm       A        E        E        
G:--------|--------|--------|--------|--------|--------|--------|--------|
D:----4---|--------|--------|--------|----4---|--------|--------|--------|
A:2--2--2-|0--00---|--------|--------|2--2--2-|0--00---|--------|-------0|
E:--------|--------|0--00---|0--00---|--------|--------|0--00---|0--0004-|






[CHORUS]

      Bm  A                       E                           E
  And I     don't want to fall in love
                                    (This world is only gonna break your heart)
      Bm  A                       E                           E
  No, I     don't want to fall in love
                                    (This world is only gonna break your heart)

  Bm       A        E        E        Bm       A        E        E        
G:--------|--------|--------|--------|--------|--------|--------|--------|
D:----4---|--------|--------|--------|----4---|--------|--------|--------|
A:2--2--2-|0--00---|--------|----2---|2--2--2-|0--00---|--------|-------0|
E:--------|--------|0--00---|0--0--0-|--------|--------|0--00---|0--00-4-|







[INSTRUMENTAL]

       Bm  A                      E                           E
  With you

  Bm       A        E        E        Bm       A        E        E        
G:--------|--------|--------|--------|--------|--------|--------|--------|
D:----4---|--------|--------|--------|----4---|--------|--------|--------|
A:2--2--2-|0--00---|--------|----2---|2--2--2-|0--00---|--------|-------0|
E:--------|--------|0--00---|0--0--0-|--------|--------|0--00---|0--00-4-|

  Bm       A        E        E        Bm       A        E        E        
G:--------|--------|--------|--------|--------|--------|--------|--------|
D:----4---|--------|--------|--------|--------|--------|--------|--------|
A:2--2--2-|0--00---|--------|----2---|2--2--2-|0--00---|--------|-------0|
E:--------|--------|0--00---|0--0--0-|----2---|--------|0--00---|0--00-4-|





[VERSE]

  Bm                A                        E            E
  World was on fire no one could save me but you
  Bm                       A                   E          E
  Strange what desire will make foolish people do
  Bm                   A                      E           E
  I never dreamed that I'd meet somebody like you
  Bm                      A                      E        E
  I've never dreamed that I'd lose somebody like you

  Bm       A        E        E        Bm       A        E        E        
G:--------|--------|--------|--------|--------|--------|--------|--------|
D:--------|--------|--------|--------|--------|--------|--------|--------|
A:2--22---|0--00---|--------|----2---|2--22---|0--00---|--------|-------0|
E:--------|--------|0--00---|0--0--0-|--------|--------|0--00---|0--00-4-|

  Bm       A        E        E        Bm       A        E        E        
G:--------|--------|--------|--------|--------|--------|--------|--------|
D:--------|--------|--------|--------|--------|--------|--------|--------|
A:2--22---|0--00---|--------|----2---|2--22---|0--00---|--------|-------0|
E:--------|--------|0--00---|0--0--0-|--------|--------|0--00---|0--00-4-|

[CHORUS]
      Bm  A                       E                           E
  No, I     don't want to fall in love
                                    (This world is only gonna break your heart)
      Bm  A                       E                           E
  No, I     don't want to fall in love
                                    (This world is only gonna break your heart)
       Bm  A                      E                           E
  With you
                                    (This world is only gonna break your heart)
       Bm  A                      E                           E
  With you
                                    (This world is only gonna break your heart)

  Bm       A        E        E        Bm       A        E        E        
G:--------|--------|--------|--------|--------|--------|--------|--------|
D:----4---|--------|--------|--------|----4---|--------|--------|--------|
A:2--2--2-|0--00---|--------|----2---|2--2--2-|0--00---|--------|-------0|
E:--------|--------|0--00---|0--0--0-|--------|--------|0--00---|0--00-4-|

  Bm       A        E        E        Bm       A        E        E        
G:--------|--------|--------|--------|--------|--------|--------|--------|
D:----4---|--------|--------|--------|----4---|--------|--------|--------|
A:2--2--2-|0--00---|--------|----2---|2--2--2-|0--00---|--------|-------0|
E:--------|--------|0--00---|0--0--0-|--------|--------|0--00---|0--00-4-|

[CODA]
      Bm  A                       E                           E
  No, I-------------
                                    (This world is only gonna break your heart)
      Bm  A                       E                           E
                                    (This world is only gonna break your heart)
  Bm       A          E
    Nobody   loves no one...  

  Bm       A        E        E        Bm       A        E        E        
G:--------|--------|--------|--------|--------|--------|--------|--------|
D:----4---|--------|--------|--------|----4---|--------|--------|--------|
A:2--2--2-|0--00---|--------|----2---|2--2--2-|0--00---|--------|-------0|
E:--------|--------|0--00---|0--0--0-|--------|--------|0--00---|0--00-4-|

  Bm       A        E        E        
G:--------|--------|--------|--------|
D:--------|--------|--------|--------|
A:2-------|0-------|--------|--------|
E:--------|--------|0~~~~~~~~~~~~~~~~|

Tabbed by Michael Oxner
moxner@nbnet.nb.ca
Suggest correction
comments
print report bad tab
1 comment total.
0 reply
ayreon77 13,839 wrote on July 14 2016, 08:12 pm

great tab. spot on

guest
You may want to rate the tab now too:
select rating
Wanna post a correction for this tab? Suggest correction