Oops, an error
Loading. Please wait.
We have an official Wicked Game tab made by UG professional guitarists. Check out the tab »
×

Wicked Game tab

135,089 views 132 this week
no commentswrite comment
1 2 3 4 5
x 32
add to favorites
×
Save as Personal and add changes to this tab that will be seen only by you. Learn more ›
×
You can save this tab as Personal to edit and correct it or add notes. All changes will be seen only by you. Learn more »
launch autoscroll
font size
0
reset
how to read this tab
guitar tuner
backing track
0:00
0:00
edit
Autoscroll
slow
fast
+/-
esc
set tempo
stop
Author
Difficulty
intermediate
[Intro]                                          

e|-----------------------------------------|    
B|-----6b7---7\4-----6b7---5-3-2-0---------|    
G|4b2-----------4--4-----------------2---1-|    
D|---------------------------------4---2---|    
A|-----------------------------------------|    
E|-----------------------------------------|  

e|---2-----0-------------------------------------------|                  
B|-----3-----3----3p2---2p0----------------------------|             
G|--------------------------------2---1-------1/2/4----|x2                 
D|--------------------------------2---2----------------|                  
A|-2-----2------0-----0------2-------------------------|                  
E|------------------------------0---0--------0---------| 


[Verse 1]

Bm                         A                       E   
The world was on fire and no one could save me but you.

                                                     e|------------|                  
                                                     B|------------|          
                                                     G|----2---1---|                 
                                                     D|--4---2-----|                 
                                                     A|------------|                 
                                                     E|------------| 

Bm                            A                    E   
It's strange what desire will make foolish people do.

                                                     e|-----------|
                                                     B|-----------|
                                                     G|----1-2-4--|
                                                     D|--2--------|
                                                     A|-----------|
                                                     E|-----------|   

Bm                     A                     E   
I never dreamed that I'd meet somebody like you.

                                                     e|------------|                  
                                                     B|------------|        
                                                     G|----2---1---|                 
                                                     D|--4---2-----|                 
                                                     A|------------|                 
                                                     E|------------| 

Bm                     A                     E   
I never dreamed that I'd knew somebody like you.

                                                     e|-----------|
                                                     B|-----------|
                                                     G|----1-2-4--|
                                                     D|--2--------|
                                                     A|-----------|
                                                     E|-----------| 

[Chorus]

e|-------0--------------0--------------------------|                  
B|----3----3---------3----3------------------------|          
G|--4----------4---4---------4--------1---1/2/4----|                  
D|----------------------------------2--------------|                  
A|-2----2----2---0-----0----0-----2----------------|                  
E|------------------------------0--------0---------|                  
Bm A                   E                 
I don't want to fall in love. (This world is only gonna break your heart)

e|-------0--------------0--------------------------|                  
B|----3----3---------3----3------------------------|           
G|--4----------4---4---------4--------1---1/2/4----|                  
D|----------------------------------2--------------|                  
A|-2----2----2---0-----0----0-----2----------------|                  
E|------------------------------0--------0---------|                  
Bm A                   E                  
I don't want to fall in love. (This world is only gonna break your heart)   With you.
                 
e|---2-----0-------------------------------------------|                  
B|-----3-----3----3p2---2p0----------------------------|           
G|--------------------------------2---1-------1/2/4----|                  
D|--------------------------------2---2----------------|                  
A|-2-----2------0-----0------2-------------------------|                  
E|------------------------------0---0--------0---------|  
                              (This world is only gonna break your heart)    With you    

e|---2-----0-------------------------------------------|                  
B|-----3-----3----3p2---2p0----------------------------|       
G|--------------------------------2---1-------1/2/4----|                  
D|--------------------------------2---2----------------|                  
A|-2-----2------0-----0------2-------------------------|                  
E|------------------------------0---0--------0---------|  
    

[Verse 2]

Bm             A           E                       
What a wicked game to play, to make me feel this way.

                                                     e|------------|
                                                     B|------------|
                                                     G|----2---1---|      
                                                     D|--4---2-----|                 
                                                     A|------------|                 
                                                     E|------------| 

Bm               A        E                       
What a wicked thing to do, to let me dream of you.

                                                     e|-----------|
                                                     B|-----------|
                                                     G|----1-2-4--|
                                                     D|--2--------|
                                                     A|-----------|
                                                     E|-----------|  

Bm              A          E                       
What a wicked thing to say, you never felt this way.

                                                     e|------------|                  
                                                     B|------------|   
                                                     G|----2---1---|                 
                                                     D|--4---2-----|                 
                                                     A|------------|                 
                                                     E|------------| 

Bm              A         E                          
What a wicked thing to do, to make me dream of you and,

                                                     e|-----------|
                                                     B|-----------| 
                                                     G|----1-2-4--|
                                                     D|--2--------|
                                                     A|-----------|
                                                     E|-----------|  


[Chorus]

e|-------0--------------0--------------------------|                  
B|----3----3---------3----3------------------------|          
G|--4----------4---4---------4--------1---1/2/4----|                  
D|----------------------------------2--------------|                  
A|-2----2----2---0-----0----0-----2----------------|                  
E|------------------------------0--------0---------|                  
Bm A                   E                 
I don't want to fall in love. (This world is only gonna break your heart)

e|-------0--------------0--------------------------|                  
B|----3----3---------3----3------------------------|           
G|--4----------4---4---------4--------1---1/2/4----|                  
D|----------------------------------2--------------|                  
A|-2----2----2---0-----0----0-----2----------------|                  
E|------------------------------0--------0---------|                  
Bm A                   E                  
I don't want to fall in love. (This world is only gonna break your heart)   With you.


[Instrumental]                                        

e|-----------------------------------------|    
B|-----6b7---7\4-----6b7---5-3-2-0---------|    
G|4b2-----------4--4-----------------2---1-|    
D|---------------------------------4---2---|    
A|-----------------------------------------|    
E|-----------------------------------------|  

e|---2-----0-------------------------------------------|                  
B|-----3-----3----3p2---2p0----------------------------|             
G|--------------------------------2---1-------1/2/4----|x2                 
D|--------------------------------2---2----------------|                  
A|-2-----2------0-----0------2-------------------------|                  
E|------------------------------0---0--------0---------| 
     

[Verse 3]

Bm                         A                       E   
The world was on fire and no one could save me but you.
                                                     e|------------|                  
                                                     B|------------|     
                                                     G|----2---1---|                 
                                                     D|--4---2-----|                 
                                                     A|------------|                 
                                                     E|------------| 
Bm                            A                    E  
It's strange what desire will make foolish people do.

                                                     e|-----------|
                                                     B|-----------| 
                                                     G|----1-2-4--|
                                                     D|--2--------|
                                                     A|-----------|
                                                     E|-----------|  
Bm                     A                     E  
I never dreamed that I'd love somebody like you.

                                                     e|------------|                  
                                                     B|------------|          
                                                     G|----2---1---|                 
                                                     D|--4---2-----|                 
                                                     A|------------|                 
                                                     E|------------| 

Bm                     A                     E   
I never dreamed that I'd loose somebody like you no,

                                                     e|-----------|
                                                     B|-----------| 
                                                     G|----1-2-4--|
                                                     D|--2--------|
                                                     A|-----------|
                                                     E|-----------|  


[Chorus]

e|-------0--------------0--------------------------|                  
B|----3----3---------3----3------------------------|          
G|--4----------4---4---------4--------1---1/2/4----|                  
D|----------------------------------2--------------|                  
A|-2----2----2---0-----0----0-----2----------------|                  
E|------------------------------0--------0---------|                  
Bm A                   E                 
I don't want to fall in love. (This world is only gonna break your heart)

e|-------0--------------0--------------------------|                  
B|----3----3---------3----3------------------------|           
G|--4----------4---4---------4--------1---1/2/4----|                  
D|----------------------------------2--------------|                  
A|-2----2----2---0-----0----0-----2----------------|                  
E|------------------------------0--------0---------|                  
Bm A                   E                  
I don't want to fall in love. (This world is only gonna break your heart)   With you.
                   
e|---2-----0-------------------------------------------|                  
B|-----3-----3----3p2---2p0----------------------------|           
G|--------------------------------2---1-------1/2/4----|                  
D|--------------------------------2---2----------------|                  
A|-2-----2------0-----0------2-------------------------|                  
E|------------------------------0---0--------0---------|  
                              (This world is only gonna break your heart)    With you.
  
e|---2-----0-------------------------------------------|                  
B|-----3-----3----3p2---2p0----------------------------|       
G|--------------------------------2---1-------1/2/4----|                  
D|--------------------------------2---2----------------|                  
A|-2-----2------0-----0------2-------------------------|                  
E|------------------------------0---0--------0---------|  


[Outro]

Bm       A       E
Nobody loves no one.


***********************************
| /   Slide up
| \   Slide down
| p   Pull-off
| b   Bend
***********************************

            
            
Suggest correction
Creating personal tab
Creating personal tab
You can edit any tab online and save it as your Personal.

You can edit, replace or remove any tab part or add personal notes – all changes will be seen only by you.

Personal tabs can be accessed anytime from any device, even offline.
Learn more »
There is a new version of this tab from 4 days ago which you may like more. Go check it out:
comments
print report bad tab
guest
You may want to rate the tab now too:
select rating
Wanna post a correction for this tab? Suggest correction