Oops, an error
Loading. Please wait.

North Dakota Tab

version 1
version 1

Whole song

1,184 views 6 this week
2 commentsread comments
1 2 3 4 5
please rate
add to favorites
launch autoscroll
font size
0
reset
how to read this tab
guitar tuner
Autoscroll
slow
fast
+/-
esc
set tempo
stop
Help us to improve Ultimate-Guitar.com Take our survey!
×
Author
-------------------------------------------------------------------------------
                         North Dakota - Chris Knight
-------------------------------------------------------------------------------
Tabbed by:Caleb99

Tuning:Standard


This how I hear the song at
http://www.youtube.com/watch?v=0GX8hGmR00E
Any Corrections or Comments are welcome.

Please rate.

Capo 5th Fret


CHORDS
    Am   C   Cmaj9   Fmaj7
e|--0----0----0-------0-----|
B|--1----1----1-------1-----|
G|--2----0----0-------2-----|
D|--2----2----0-------3-----|
A|--0----3----2-------0-----|
E|------------3-------------|



Intro
    C       G         F            
e|----------------------------------|
B|--------------------1-11-1--------|
G|----0---------------2-22-2-0h2-0--|
D|--2---0h2---0-------3-33-3--------|
A|--3-------2---2h3-----------------|
E|----------3-----------------------|

Instrumental (Played Once After Intro, Then During Mandolin Parts)

e|--------------------------------|
B|----1-11-------------------1-0--|
G|----2-22----0-----00------------|
D|--2-2-22------0h2-22--0-00------|
A|-0--0-00--3-------33--2-22------|
E|----------------------3-33------|

Mandolin Arranged for Guitar(Tabbed with the Capo 0ff)
e|-------------------------------------------------------|
B|-8h10-10-10-10-8--5h6-6-6-6-5-6h8-8-8-8-6--5---8-10-6--|
G|-------------------------------------------------------|
D|-------------------------------------------------------|
A|-------------------------------------------------------|
E|-------------------------------------------------------|

e|-------------------------------8--8-10-8-5-8-----------|
B|-8h10-10-10-10-8--5h6-6-6-6-5--------------------------|
G|-------------------------------------------------------|
D|-------------------------------------------------------|
A|-------------------------------------------------------|
E|-------------------------------------------------------|

Verse
Am                      C
Been snowin all day when I got home 
    Cmaj9            Fmaj7
The fire was out the cabin was cold
     Am                 C                  Cmaj9
And I poured some stale coffee from the pot
    Am                  C
The longer I waited the snow got higher
     Cmaj9               Fmaj7 
So I split some wood and built a fire
   Am                   C             Cmaj9
If she told me she’d be gone I forgot
 
I'd seen it snow that hard before
I couldn’t see the cabin from the stable door
And that mare she always rode was in the stall
The law couldn’t come till the weather broke
My heart was poundin in my throat
And I searched and called her name till it was raw
 
I never should have brought her here
Livin’s rough this time of year
Tryin to keep food and fire till winters done
Sometimes she gazed across the plains
With a look that I couldn’t name
And I’d wonder if she stay till springtime comes
 
I found her on the first warm day 
The rain had washed the snow away
Went for wood and lost her way back home
And I ain’t the kind believes in ghosts 
But some nights I get pretty close
When the North Dakota winter moans
When the North Dakota winter moans
 

************************************

| /   slide up
| \   slide down
| h   hammer-on
| p   pull-off
| ~   vibrato
| +   harmonic
| x   Mute note
| b   Bend
| pb  Pre-bend
| br  Bend release
| pbr Pre-bend release
| brb Bend release bend

************************************
Suggest correction
Give kudos to tab author, rate the tab!
1 2 3 4 5
comments
print report bad tab
2 comments total.
0 reply
dontletgo94 492 wrote on December 7 2012, 06:07 pm

this is wrong

0 reply
caleb99 325 wrote on December 7 2012, 08:08 pm

Would you mind saying how exactly?

guest
You may want to rate the tab now too:
select rating
Wanna post a correction for this tab? Suggest correction